tablaturas, partituras y acordes para guitarra
Busca por banda/artista:
 
y/o título de la canción:
A B C D E F G H I J K L M N O P Q R S T U V W X Y Z 0 1 2 3 4 5 6 7 8 9 / Top 100 tabs
Categorías
Usuarios
usuario:
Darse de alta
password:
Artistas más visitados
Publicidad
TOP acordes y tablaturas de Luis Alberto Spinetta


Fuji
de Luis Alberto Spinetta
Puntúa este acorde/tab:      
(0.2/5)
Reportar este acorde/tab
  Añadir a tus favoritos
  Imprimir
1997 - Spinetta y los Socios del Desierto

Intro:

1|--5------2------7h5----4-------5h4----2--------5h2---0----------|
2|-------3-------------------5--------------3--------------2------|
3|-----2-------------------4--------------2--------------2--------|
4|--0--------------------0--------------0--------------0----------|
5|----------------------------------------------------------------|
6|----------------------------------------------------------------|


1|-2p0------------------------2-----------------|
2|-------3---3----5h3--2--2h3-------------------|
3|---------2------------------------------------|
4|-------0--------0-----------------------------|
5|----------------------------------------------|
6|----------------------------------------------|

Has dejado noches, noches del adios.
La certeza de tus ojos cree que me voy...


1|-2----0-2---0----0--------------2-----2-------|
2|-----------------------3-----3------3---------|
3|---2-----------4---4-------3------2-----------|
4|-0----------0------------2------0-------------|
5|-----------------------1----------------------|
6|----------------------------------------------|

Has dejado un cielo para amanecerlo a la vez,
allí...

     Bm          Mim        La        Re       Re
1|---------2---------2------0-----0------------------------|
2|-3-----3-------0-----2--------2-----3-----3--3-----3-----|
3|-----4----------------------2-----------2--------2-------|
4|---4-------------2--------0---------0-0--------0---------|
5|---------------------------------------------0-----------|
6|-2-------------0-----------------------------------------|


Cruzas sólo puentes, puentes entre tí.
Las flores y el silencio son cosas de tu amor.
Has dejado un río, para atravesarlo a la vez,
allí.

Estribillo:

      Sim
Y es que me espera
      La
y cobijo me dará
      Sim
entre sus manos
      La
hasta que luego venga Fuji
      Sim
con el mundo.
      La                  Sim     
Y me hace las señales con las piernas
      La                  Sol5
desde un punto de la calle, desolada,
      Mim7                Sol5
y es que puedo soportar esta distancia,
      Mim7                    ??                             
y es que te has impreso en mi como una luz.

Punteo:

Cruzas sólo puentes, puentes entre tí.
Las flores y el silencio son cosas de tu amor.
Has dejado un río, para atravesarlo a la vez,
allí.

Estribillo:

Y es que me espera
y cobijo me dará
entre sus manos
hasta que luego venga Fuji
con el mundo.
Y me hace las señales con las piernas
desde un punto de la calle, desolada,
y es que puedo soportar esta distancia,
y es que te has impreso en mi como una luz.


??: X2323X
		   
AcordesyTabs.com © 2008 Acordes y Tablaturas para guitarra. Tabs and Chords for guitar. Aviso Legal - Contacto
El uso de este sitio está sujeto a la aceptación de los términos y condiciones (17 usuarios online)