tablaturas, partituras y acordes para guitarra
Busca por banda/artista:
 
y/o título de la canción:
A B C D E F G H I J K L M N O P Q R S T U V W X Y Z 0 1 2 3 4 5 6 7 8 9 / Top 100 tabs
Categorías
Usuarios
usuario:
Darse de alta
password:
Artistas más visitados
Publicidad
TOP acordes y tablaturas de Who


Estás en: Inicio > Letra W > Acordes y tablaturas de Who > Bargain
Bargain
de Who
Puntúa este acorde/tab:      
(0.3/5)
Reportar este acorde/tab
  Añadir a tus favoritos
  Imprimir


From: Litgo <Litgo@aol.com>
Date: Tue, 7 Apr 1998 13:35:01 EDT
Subject: w/who/bargain.tab



Bargain
By the Who
>From Who's Next, 1971
Written by Pete Townshend

==============
transcribed by
litgo@aol.com
==============

Electric: Tune down 1/2 step (Eb Ab Db Gb Bb Eb)
Acoustic: Capo on 1 (standard tuning)

[chords]  (electric)  (acoustic)
Bb7sus4    xx4252      x13141
Bb7        xx4242      x13131
Bb         x244xx      x13331 or 13366
Ab         x022xx      4x1144
Eb         022400      x(1)1343 or xx1346
Dbadd9     xx0230      x43144
Eb6sus4    042200      xx1344
Gb         3x00xx      x44322

[bridge chords; electric tacit (I've put them in 
for single guitar arrg, e.g., Who's Missing)]
Eb         xx2100      xx1343 (xx1346; second time)
Ebmaj7/D   xx1100      x51343
Ebadd9/Db  xx0100      x41341
Ebsus4/Ab  x02200      4x1141 (Ab6)
Dbadd9     xx0230      x43141
Fsus4      244422      133311
F          244322      133211

[Note: Leads are approximate. Leads are transcribed for electric/Eb tuning;
chords symbols above leads are for acoustic/capo]


  Bb7sus4       Bb7        Bb7sus4        Bb
|-------------|----------|-------------|---------------------|
|-------------|----------|-------------|---------------------|
|-6-13---11-9-|-11-8---9-|-6-13---11-9-|-16------------------|
|-------------|----------|-------------|---------------------|
|-4-11---9--7-|-9--6---7-|-4-11---9--7-|-14------------------|
|-------------|----------|-------------|---------------------|
 [with volume pedal for swells]

    Bb                          Ab Eb
I'd glady lose me to find you
    Bb                          Ab Eb
I'd gladly give up all I had
   Bb                   Dbadd9               Eb  Eb6sus4
To find you, I'd suffer anything and be glad
                                                 e|-0--0--0--0--0--0--|
                                                 b|-12-10-9--7--5--3--|

     Bb                              Ab Eb
I'll pay any price just to get you
     Bb                              Ab Eb
I'll work all my life, and I will
   Bb                Dbadd9                    Eb  Eb6sus4
To win you I'd stand naked, stoned and stabbed
                                                 |-0---0--0---0-----|
                                                 |-0-2--3---2-0-----|
                                                 |-1-2--4---2-1-----|
                                                 |------------2-----|
                                                 |------------------|
                                                 |------------------|

                Gb           Ab          Eb      Eb
I'd call that a bargain, the best I ever had  
                    
The best I ever had..........
                Bb                Ab  Eb      Bb        Ab Eb
              |-----------------------------|-------------------|
              |-----------------------------|-------------------|
              |-2-4--2-4--2-4---------7-----|-2-4--2-4--2---x-x-|
              |-2-4--2-4--2-4----4-6/9-9----|-2-4--2-4--2---x-x-|
              |-----2---2-----2/6---------2-|----2----2---------|
              |-----------------------------|-------------------|

I'd gladly lose me to find you
I'd gladly give up all I got
To catch you I'm gonna run and never stop

e|----0-0-0---0---0---|
b|-/5-5-7-9--10--10---|

I'd pay any price just to win you
Surrender my good life for bad
To find you I'm gonna drown an unsung man

|-0--0---0-------|
|-0--------3-/5--|
|-1-2--/4--------|
|----------------|
|----------------|
|----------------|

I'd call that a bargain, the best I ever had
The best I ever...
  had............
  Bb                     Ab    Eb        Bb              Ab  Eb
|--------------------------------------|---------------------------|
|---7--7--7--7--7---7-7--7-----7-7-7---|-7--7-7--7-----------------|
|---6^-6^-6^-6^-6---6-6--4/6/4-6-4-4---|-6^-6-4--4-------4----2----|
|--------------------------------------|--------6--4/2---4-2--2----|
|--------------------------------------|--------------4----2-------|
|--------------------------------------|-------------------------0-|

[bridge]
Eb                 Ebmaj7/D
I sit looking round, 

                  Ebadd9/Db
I look at my face in the mirror
                              b|-10-9--5---------|

                 Ebsus4/Ab            Dbadd9
I know I'm worth nothing without you
                                   b|-5/7-----|

         Eb                             Ebmaj7
And like one and one don't make two

                 Ebadd9/Db
One and one make one
                         b|-10-9-14------------|

        Ebsus4/Ab        Dbadd9                          
And I'm looking for that free ride to me, I'm looking for...
  you.....  
| Fsus4      F  | Fsus4  Bb  | Bb7sus4   | Bb7        |

[synth riff arr. for guitar]
 | Bb7sus4      | Bb7      | Bb7sus4     | Bb7        |
g|-6-/13---11-9-|-11-8---9-|-6-13---11-9-|/11---------|

 | Bb7sus4      | Bb7      | Bb7sus4     | Bb         |
g|-6-/13---11-9-|-11-8---9-|-6-13---11-9-|-16---------|

I'd gladly lose me to find you
I'd gladly give up all I got
To catch you I'm gonna run and never stop

|---0-------12-----------------|
|---0----12-12-------9---9----|
|--------11^--11--9-9-7-9----|
|------------------------------|
|------------------------------|
|-0----------------------------|

I'll pay any price just to win you
Surrender my good life for bad
To find you I'm gonna drown an unsung man

|----0---0-0-----0-----0-|
|-----/5-3-2--/5--3-2---|
|--------------------2---|
|------------------------|
|-2----------------------|
|-0----------------------|

I call that a bargain, the best I ever had
The best I ever... 
  had.................
  Bb             Ab Eb   Bb             Ab   Eb     
|----7---7---7---------|---------------------------|
|--7-7-7-7-7-7-7-----4-|--4---4---4---4-2----------|
|--6^--6^--6^--6^-4-4-|--4---4---4---4-2--4-------|
|-------------------6--|-6---6---6---6--2----------|
|----------------------|---------------------2---0-|
|----------------------|-----------------------0---|

  Bb                       Ab  Eb          Bb              Ab  Eb  
|-------------------------------------7-7-|-----------7-----------|
|--------------------------------7----7-7-|--7-7--7-7-7-----------|
|---------------7^------------7^-7--------|--7-8--7-8--------4-2---|
|---------4-6/9---9-9/9--9/9/9--9----9----|-9----9-----------4-2---|
|-2-2--2/6--------------------------------|--------------0-2-------|
|-----------------------------------------|------------------------|

[repeat intro pattern]
[repeat post-bridge synth arr. for guitar pattern]
[repeat intro pattern]

=============
litgo@aol.com



		   
AcordesyTabs.com © 2008 Acordes y Tablaturas para guitarra. Tabs and Chords for guitar. Aviso Legal - Contacto
El uso de este sitio está sujeto a la aceptación de los términos y condiciones (26 usuarios online)