tablaturas, partituras y acordes para guitarra
Busca por banda/artista:
 
y/o título de la canción:
A B C D E F G H I J K L M N O P Q R S T U V W X Y Z 0 1 2 3 4 5 6 7 8 9 / Top 100 tabs
Categorías
Usuarios
usuario:
Darse de alta
password:
Artistas más visitados
Publicidad
TOP acordes y tablaturas de Carnaval de Cadiz


Gaditana
de Carnaval de Cadiz
Puntúa este acorde/tab:      
(0.3/5)
Reportar este acorde/tab
  Añadir a tus favoritos
  Imprimir
Transcripción hecha para bandurria.

Tono : DO MAYOR

El * al lado del número significa q esa nota va trineada :)

6|----------------------------------------------------------------------------------------------------------
5|----------------------------------------------------------------------------------------------------------
4|----------------------------------------------------------------------------------------------------------
3|----------------------------------------------------------------------------------------------------------
2|-0-3----------------------------------3---3*--------------------------------------------------------------
1|-----3-3*-5-3-2-0-2-3-5-3-2-0-2-3-2-0---0-----------------------------------------------------------------

6|----------------------------------------------------------------------------------------------------------
5|----------------------------------------------------------------------------------------------------------
4|----------------------------------------------------------------------------------------------------------
3|----------------------------------------------------------------------------------------------------------
2|-3--------------1*-3----------------3*--------------------------------------------------------------------
1|---0-0-0-0-0-0*------2-2-2-2-2-2-2*-----------------------------------------------------------------------

6|----------------------------------------------------------------------------------------------------------
5|----------------------------------------------------------------------------------------------------------
4|----------------------------------------------------------------------------------------------------------
3|----------------------------------------------------------------------------------------------------------
2|-0-3----------------------------------3---3*--------------------------------------------------------------
1|-----3-3*-5-3-2-0-2-3-5-3-2-0-2-3-2-0---0-----------------------------------------------------------------

6|----------------------------------------------------------------------------------------------------------
5|----------------------------------------------------------------------------------------------------------
4|----------------------------------------------------------------------------------------------------------
3|--------------------------------------------------------------------------------------4-3-1-3*------------
2|-----------3*-0-1-3-0-1-3---3-0-1-3---------4-3---4-3-4--------------4-3*-3-3-3-4-3-1---------------------
1|-0-0-2-3-2----------------0---------0-1-1-1-----1-------3-3-3-3-3-3-1-------------------------------------

6|----------------------------------------------------------------------------------------------------------
5|----------------------------------------------------------------------------------------------------------
4|--SOL MAYOR ----------------------------------------------------------------------------------------------
3|----------------------------------------------------------------------------------------------------------
2|------------------0-3----------------------------------3-1*-1-3----------------------------3---3-1-0*-0-3-
1|----------------------3-3-3-3-3-5-7-7*-3-5-5-2-3-0-2-0----------2-3-2-2-2-3-5-5*-2-3-3-0-2---0------------

6|----------------------------------------------------------------------------------------------------------
5|----------------------------------------------------------------------------------------------------------
4|----------------------------------------------------------------------------------------------------------
3|----------------------------------------------------------------------------------------------------------
2|----------------------------------------------------------------------------------------------------------
1|-3-3-3-3-3-7-7*-5-7-8-8-7-5-3-0*-8-8-7-5-7-8-1-0-8-7*-7-7-5-3-5-7-5-5-3-2-5-3*----------------------------

** Dedicada como no, a todas las mujeres **
		   
AcordesyTabs.com © 2008 Acordes y Tablaturas para guitarra. Tabs and Chords for guitar. Aviso Legal - Contacto
El uso de este sitio está sujeto a la aceptación de los términos y condiciones (19 usuarios online)