tablaturas, partituras y acordes para guitarra
Busca por banda/artista:
 
y/o título de la canción:
A B C D E F G H I J K L M N O P Q R S T U V W X Y Z 0 1 2 3 4 5 6 7 8 9 / Top 100 tabs
Categorías
Usuarios
usuario:
Darse de alta
password:
Artistas más visitados
Publicidad
TOP acordes y tablaturas de Green day


Minority
de Green day
Puntúa este acorde/tab:      
(0.3/5)
Reportar este acorde/tab
  Añadir a tus favoritos
  Imprimir



Minority - this is PERFECT.... ignore all other versions
By Green Day
by Brian S (claptonx461@aol)

Intro : quickly

  C         G         Fmaj7       C
E-----------------------------0---------------------------
B-------1---------3-------1-----1-------1----------1--0---
G---0-----0---------0---2---2-----0-----0-0--------0--0---
D-----2-------0---------3---3-----0h2--------0h2----------
A-3-------------2---------------------3----------3--------
E-----------3---------------------------------------------

  G          Fmaj7    C  N.C.
E--------------------------------------------------------
B-------3------------------------------------------------
G---0-----0--2--0----------------------------------------
D------------3--2--0--2----------------------------------
A-----2---------------3----------------------------------
E-3------------------------------------------------------

Intro Chorus : quickly

   C5		F5	     G5		  F5		
E--------------------------------------------------------
B--------------------------------------------------------
G--5-5-5-5-----------------------------------------------
D--5-5-5-5------3-3-3-3------5-5-5-5------3-3-3-3--------
A--3-3-3-3------3-3-3-3------5-5-5-5------3-3-3-3--------
E-----------0---1-1-1-1--0---3-3-3-3---0--1-1-1-1--0-----
   I wanna      be  the      minority             
   I dont       need your    authority....            I

Verse :
  C   	     G         F       Fmaj7
E-0-----0----3-----0---1-----0--0---------0----------------
B-1-----0----3-----0---1-----0--1---------0----------------
G-0-----0----0-----0---2-----0--2---------0----------------
D-2-----0----0-----0---3-----0--3---------0----------------
A-3----------2--------------------------------------------
E------------3--------------------------------------------
 pledge   allegiance   to the underworld    One
 nation under dog there of which i stand along...

Chorus :

   C5		F5	     G5		  F5		
E--------------------------------------------------------
B--------------------------------------------------------
G--5-5-5-5-----------------------------------------------
D--5-5-5-5------3-3-3-3------5-5-5-5------3-3-3-3--------
A--3-3-3-3------3-3-3-3------5-5-5-5------3-3-3-3--------
E-----------0---1-1-1-1--0---3-3-3-3---0--1-1-1-1--0-----
   I wanna      be  the      minority             
   I dont       need your    authority....       
     
Bridge :
   A      	    E	  F            C            A
E-----------------------------------------------------------
B-------------------9-----10-10-10-10-----------------------
G-------------------9-----10-10-10-10-----------------------
D--7-7-7-7-7-7-7----9-----10-10-10-10--10-10-10-10--7-7-7-7-
A--7-7-7-7-7-7-7----7--8--8--8--8--8---10-10-10-10--7-7-7-7-
E--5-5-5-5-5-5-5--0------------------0-8--8--8--8-0-5-5-5-5-
   Stepped out of the line                          Like a 

           E5	F5          G5 		  
E--------------------------------------------------------
B--------------------------------------------------------
G----------9---------------------------------------------
D-7-7-7----9----3-3-3-3-----5-5-5-5----------------------
A-7-7-7----7----3-3-3-3-----5-5-5-5----------------------
E-5-5-5---------1-1-1-1--3--3-3-3-3-0--------------------
  sheep   runs  from the    herd......
             G 				    B5
E--------------------------------------------------------
B--------------------------------------------------------
G--------------------------------------------4-----------
D--x--x--x---5--5--5---x---5----5---5---5~~--4-----------
A--x--x--x---5--5--5---x---5----5---5---5~~--2-----------
E--x--x--x---3--3--3---x---3----3---3---3~~--------------
  	               The only way i know

Interlude : verse w/ no words

Chorus

Outro same as intro : ends like this :

  Fmaj7		  C
E--------__2__------------------------------------------
B-------|-----|-----------------------------------------
G--2-----0---0----0~~~----------------------------------
D--3-----2---0----2~~~----------------------------------
A-----------------3~~~----------------------------------
E-------------------------------------------------------

		   
AcordesyTabs.com © 2008 Acordes y Tablaturas para guitarra. Tabs and Chords for guitar. Aviso Legal - Contacto
El uso de este sitio está sujeto a la aceptación de los términos y condiciones (30 usuarios online)