tablaturas, partituras y acordes para guitarra
Busca por banda/artista:
 
y/o título de la canción:
A B C D E F G H I J K L M N O P Q R S T U V W X Y Z 0 1 2 3 4 5 6 7 8 9 / Top 100 tabs
Categorías
Usuarios
usuario:
Darse de alta
password:
Artistas más visitados
Publicidad
TOP acordes y tablaturas de Jaguares


Estás en: Inicio > Letra J > Acordes y tablaturas de Jaguares > las Ratas no tienen Alas
las Ratas no tienen Alas
de Jaguares
Puntúa este acorde/tab:      
(0.5/5)
Reportar este acorde/tab
  Añadir a tus favoritos
  Imprimir
ok, este es el tab para el requinto que toca el bajo al principio 
de la cancion (bajo el azul de tu misterio). 
Muy pronto acompanare este tab con el de la cancion!

|------------------------------------------------
|------------------------------------------------
|-----/12---9----7-------------------------------   seguido por.....
|-----------------------0^5-5-5-0-5-0^5---5/7^8--

|----------------------------------
|---------------------7-9~--------- despues se repite todo 2 veces 
|--------------5/7-7--------------- PERO con esta variacion al final
|----0^5-5-5-----------------------

|------------------------|-5^6--|
|--------------------7-9-|------|
|-------------5/7-7------|------|
|---0^5-5-5--------------|------|

|--------------------------------------------------------
|-----------------------------------------7-9~----------- 
|-----------------------------------5/7-7----------------    
|0^5-5-5-0-5-0^5---5/7^8---0^5-5-5-----------------------  

Despues de eso... se empieza el final que va asi..

|---------------------------------------------------------5-7-9~~-
|---------5-7-5--------------5-7-5----------------5-7-5----------- 
|--0-5-7--------7-----0-5-7---------7------0-5-7------------------
|-----------------------------------------------------------------

|----9-7-5----------------------
|----------7-5------------------ 
|---------------5-3------------- 
|--------------------0~--------- 

 Si no entiendedn el ritmo, escuchan el cd, y tardeo temprano lo agrraran! 
disfruten!
		   
AcordesyTabs.com © 2008 Acordes y Tablaturas para guitarra. Tabs and Chords for guitar. Aviso Legal - Contacto
El uso de este sitio está sujeto a la aceptación de los términos y condiciones (23 usuarios online)