tablaturas, partituras y acordes para guitarra
Busca por banda/artista:
 
y/o título de la canción:
A B C D E F G H I J K L M N O P Q R S T U V W X Y Z 0 1 2 3 4 5 6 7 8 9 / Top 100 tabs
Categorías
Usuarios
usuario:
Darse de alta
password:
Artistas más visitados
Publicidad
TOP acordes y tablaturas de los Panchos


Gema
de los Panchos
Puntúa este acorde/tab:      
(0.4/5)
Reportar este acorde/tab
  Añadir a tus favoritos
  Imprimir
INTRO:
       Am                                   G
1|-------------------------------------------x--------
2|-------------------------------------------x--------
3|-------------------------------------------x--------
4|-------------------------------0-2-0-------5--------
5|---0---------------------0-2-3-------3-2-0-5--------
6|-0-----------------------------------------3--------


                  F                          E
1|-------------------x-----------------------0-------- 
2|-------------------x-----------------------0--------
3|-------------------x-----------------------0--------
4|---------0---------3-----------------------2--------
5|---0-2-3---3-2-0---3---------0-2-3-2-0-----2-------- 
6|-3---------------3-1-----1-3-----------3-1-0--------


1|-----1-0------0----------------|            
2|-----3-1-3-1--1-3-1-0--3-1-0---|
3|---------4-2----4-2-1--4-2-1-2-|     
4|-----------------------------2-|
5|-------------------------------|
6|-------------------------------| 



Am
Tu,
                 G   
como piedra preciosa,
             F                           
como divina joya,
              E   F                       
valiosa de verdad.  

                    E     F     
Si mis ojos no me mienten   
                     E        
si mis ojos no me engañan, 
                     A     E7
tu belleza es sin igual.    


   A
Tuve una vez la ilusión               
                          
de tener un amor
          Eo      E7  
que me hiciera valer. 
                       
Luego que te vi mujer 
                    
yo te pude querer                  
                A                                  
con toditita mi alma,    
         E7        A 
eres la gema que Dios
                      
convirtiera en mujer 
      A7         D   
para bien de mi vida
                  A          
por eso quise cantar
                   E7    
y gritar que te quiero 
             A   D  
mujer consentida,    
         E7      A                                     
por eso elevo mi voz
                E7               
bendiciendo tu nombre
               A              
y pidiéndote amor.
		   
AcordesyTabs.com © 2008 Acordes y Tablaturas para guitarra. Tabs and Chords for guitar. Aviso Legal - Contacto
El uso de este sitio está sujeto a la aceptación de los términos y condiciones (26 usuarios online)