tablaturas, partituras y acordes para guitarra
Busca por banda/artista:
 
y/o título de la canción:
A B C D E F G H I J K L M N O P Q R S T U V W X Y Z 0 1 2 3 4 5 6 7 8 9 / Top 100 tabs
Categorías
Usuarios
usuario:
Darse de alta
password:
Artistas más visitados
Publicidad
TOP acordes y tablaturas de Mago De Oz


Gerdundula
de Mago De Oz
Puntúa este acorde/tab:      
(0.4/5)
Reportar este acorde/tab
  Añadir a tus favoritos
  Imprimir
Esta es mi primera transcripcion, parece que está buena

Guitarra

----0-------0------0-------0------0-------0------0-------0-
-------3/5------------3/5------------3/5------------3/5----
-2--------------2--------------2--------------2------------
-----------------------------------------------------------  x 3
-----------------------------------------------------------
-----------------------------------------------------------
los acordes durante el violín son: Am  F  G

En algunas partes se toca lo mismo que el violin en la guitarra
solo que una octava menos (12 tastes abajo)

Violín
-----12-----(12)----12-13-12----12----12-13-12----12----12-13-12----12-
-----------------------------15----------------15----------------15----
-14--------------------------------------------------------------------
-----------------------------------------------------------------------
-----------------------------------------------------------------------
-----------------------------------------------------------------------


-12-15--13-12-----------------------------------------------------
--------------15-13-12---13-12----12-----------/13----------12-13-
-------------------------------14-----14-12-14------14--14--------
------------------------------------------------------------------
------------------------------------------------------------------
------------------------------------------------------------------


-------------------------------12-13-12----12---12-13-12----12--
-12----12--15-13-12---------------------15---------------15-----
----14--------------14--14-14-----------------------------------
----------------------------------------------------------------
----------------------------------------------------------------
----------------------------------------------------------------


--12-13-12----12--12-15--13-12---------------------------------------
-----------15------------------15-13-12--13-12----12-----------------
-----------------------------------------------14-----14-12-14-14-14-
---------------------------------------------------------------------
---------------------------------------------------------------------
---------------------------------------------------------------------


---------------------------------------------------
----12-13--12-----15-13-12-------------------------
-14-----------14-----------14-14-14-14-14-14-14-14-
---------------------------------------------------
---------------------------------------------------
---------------------------------------------------


----12-12-12-12---12-15--13-12-----------------12-12-12-12----------------------
--------------------------------15-13-12-----------------------15-13--12-13-----
-14----------------------------------------14---------------14---------------12-
--------------------------------------------------------------------------------
--------------------------------------------------------------------------------
--------------------------------------------------------------------------------


----12-12-12-12---12-15--13-12-----------------12-12-12-12----------------------
--------------------------------15-13-12-----------------------15-13--12-13-----
-14----------------------------------------14---------------14---------------12-
--------------------------------------------------------------------------------
--------------------------------------------------------------------------------
--------------------------------------------------------------------------------


----------------------------------------------------------------
-13--12------------------------12-13--12-----15-13-12----/13----
--------14--14-12-14-14-14--14-----------14-----------14-----14-
----------------------------------------------------------------
----------------------------------------------------------------
----------------------------------------------------------------


-------------------------------------------------------------------------------------
----12-13--12----12----------------------12-13--12-----15-13-12----------------------
-14-----------14-----14-12-14-----14--14-----------14-----------14-14-14-14-14-14-14-
-------------------------------14----------------------------------------------------
-------------------------------------------------------------------------------------
-------------------------------------------------------------------------------------


-12-13-12----12----12-13-12----12----12-13-12----12-
----------15----------------15----------------15----
----------------------------------------------------
----------------------------------------------------
----------------------------------------------------
----------------------------------------------------


-12-15--13-12-----------------------------------------------------
--------------15-13-12---13-12----12-----------/13----------12-13-
-------------------------------14-----14-12-14------14--14--------
------------------------------------------------------------------
------------------------------------------------------------------
------------------------------------------------------------------


-------------------------------12-13-12----12---12-13-12----12-
-12----12--15-13-12---------------------15---------------15----
----14--------------14--14-14----------------------------------
---------------------------------------------------------------
---------------------------------------------------------------
---------------------------------------------------------------


-12-13-12----12--12-15--13-12---------------------------------------
----------15------------------15-13-12--13-12----12-----------------
----------------------------------------------14-----14-12-14----14-
--------------------------------------------------------------14----
--------------------------------------------------------------------
--------------------------------------------------------------------


---------------------------------------------------
----12-13--12-----15-13-12-------------------------
-14-----------14-----------14-14-14-14-14-14-14-14-
---------------------------------------------------
---------------------------------------------------
---------------------------------------------------


----12-12-12-12---12-15--13-12-----------------12-12-12-12----------------------
--------------------------------15-13-12-----------------------15-13--12-13-----
-14----------------------------------------14---------------14---------------12-
--------------------------------------------------------------------------------
--------------------------------------------------------------------------------
--------------------------------------------------------------------------------


----12-12-12-12---12-15--13-12-----------------12-12-12-12----------------------
--------------------------------15-13-12-----------------------15-13--12-13-----
-14----------------------------------------14---------------14---------------12-
--------------------------------------------------------------------------------
--------------------------------------------------------------------------------
--------------------------------------------------------------------------------


----------------------------------------------------------------
-13--12------------------------12-13--12-----15-13-12----/13----
--------14--14-12-14-14-14--14-----------14-----------14-----14-
----------------------------------------------------------------
----------------------------------------------------------------
----------------------------------------------------------------


-------------------------------------------------------------------------
----12-13--12----12----------------------12-13--12-----15-13-12----------
-14-----------14-----14-12-14--14-14--14-----------14-----------14-14-14-
-------------------------------------------------------------------------
-------------------------------------------------------------------------
-------------------------------------------------------------------------


------------------------------------
----12-13--12----12-----------------
-14-----------14-----14-12-14----14-
------------------------------14----
------------------------------------
------------------------------------

comentarios o sugerencias   ---->   ktulu_502@marihuana.com
		   
AcordesyTabs.com © 2008 Acordes y Tablaturas para guitarra. Tabs and Chords for guitar. Aviso Legal - Contacto
El uso de este sitio está sujeto a la aceptación de los términos y condiciones (25 usuarios online)