tablaturas, partituras y acordes para guitarra
Busca por banda/artista:
 
y/o título de la canción:
A B C D E F G H I J K L M N O P Q R S T U V W X Y Z 0 1 2 3 4 5 6 7 8 9 / Top 100 tabs
Categorías
Usuarios
usuario:
Darse de alta
password:
Artistas más visitados
Publicidad
TOP acordes y tablaturas de Attaque 77


Gil
de Attaque 77
Puntúa este acorde/tab:      
(0.6/5)
Reportar este acorde/tab
  Añadir a tus favoritos
  Imprimir
Falta de esta cancion el solo de la introducción y el solo principal...
Aca está lo que creo que esta bien...manden correccciones, porque no estoy muy seguro...

Solo de la intro:

e|-----------------10-10-10-10-10-10b-|
B|--7-8-10--7-8-10--------------------|
G|------------------------------------|
D|------------------------------------|
A|------------------------------------|
E|------------------------------------|

Solo:

e|------------------------7-9---7-9---7-9---7-9--12b-12b-12b-12b-12b--15b-15b-15b-15b-15b-|
B|--8b-8b-8b--8-6-5-----7-----7-----7-----7-----------------------------------------------|
G|------------------7b--------------------------------------------------------------------|
D|----------------------------------------------------------------------------------------|
A|----------------------------------------------------------------------------------------|
E|----------------------------------------------------------------------------------------|

Supuestamente, esto es todo...pero igual, correcciones son bien recibidas...
*SI ALGUIEN TIENE EL SOLO DE 'NO ME ARREPIENTO DE ESTE AMOR' ME LO PASA? GRACIAS!*
		   
AcordesyTabs.com © 2008 Acordes y Tablaturas para guitarra. Tabs and Chords for guitar. Aviso Legal - Contacto
El uso de este sitio está sujeto a la aceptación de los términos y condiciones (28 usuarios online)