tablaturas, partituras y acordes para guitarra
Busca por banda/artista:
 
y/o título de la canción:
A B C D E F G H I J K L M N O P Q R S T U V W X Y Z 0 1 2 3 4 5 6 7 8 9 / Top 100 tabs
Categorías
Usuarios
usuario:
Darse de alta
password:
Artistas más visitados
Publicidad
TOP acordes y tablaturas de Red hot chili peppers


Power of equality
de Red hot chili peppers
Puntúa este acorde/tab:      
(0.1/5)
Reportar este acorde/tab
  Añadir a tus favoritos
  Imprimir

Artist: Red Hot Chili Peppers
Song: "Power of Equality"
Tabbed by: Julián O. Barrera
Questions?, Comments? CHILI TALK? Kuckimosnter2@aol.com
Tune E half step down. E= D# or Eb

 Verse:
G -------------------------------------------------------------------------------
D -------------------------------------------------------------------------------
A --9-8-7/-----------6-6-5h6----------6-6-5h6---9-8-7/----------6---5h6-6-5-6-4--
E -----------0--5/7-----------0--5/7--------------------0--5/7----0--------------

G ----------------------------|
D ----------------------------|
A ----------6---5h6--9-8-7/---|
E --0--5/7----0---------------|

 Verse Before Chorus:
G ----------------------------------------|
D ----------------------------------------|
A ...-6-6-5h6-6-5-6-4---------------------|
E ----------------------6-6-6-6-6-6-6-6---|
                        S S S S S S S S
 Chorus:                           
G -----6---6---6-------9-----------|--------|In this enclosed part Flea does lots of
D ---------------------------------|--------|variations but they are easy to figure out.
A -4-4---4---4----4/7--------------|2-2--3-3|Mainly he just uses octaves and fifths.
E ------------------------6--5--3--|--------|GL!
   S S P S P S P  S    P  S  S  S   S S  S S 
 
Chorus before Verse:
G --------------------|
D --------------------|
A --------------------|
E ...6--5--3-----3/15|

 Interlude: (Wah or Auto Wah, I prefer Wah)
        (1x)                   (7x)
G -----7------5------7|------7------5------7|
D --------3-3----5-5--|---------3-3----5-5--|
A -5-5----------------|-55-5----------------|
E --------------------|---------------------|
   S S P  S S P  S S P  SS S P  S S P  S S P

 Guitar Solo:
G ----------------------------------------------------------------------
D ----------------------------------------------------------------------
A ----------6-6-5h6----------6-6-5h6---9-8-7/----------6-6-5h6-6-5-6-4--
E --0--5/7-----------0--5/7--------------------0--5/7-------------------

G ------------------|
D ------------------|
A ----------6-6-5h6-|
E --0--5/7----------|

 Outro:          (10x)
G --------8---8--------8---8------8--|| --------|
D ----------------------------4/6----||---------|
A --4/6-6---6----4/6-6---6-----------||--9-8-7/-|
E -----------------------------------||---------|



		   
AcordesyTabs.com © 2008 Acordes y Tablaturas para guitarra. Tabs and Chords for guitar. Aviso Legal - Contacto
El uso de este sitio está sujeto a la aceptación de los términos y condiciones (20 usuarios online)