tablaturas, partituras y acordes para guitarra
Busca por banda/artista:
 
y/o título de la canción:
A B C D E F G H I J K L M N O P Q R S T U V W X Y Z 0 1 2 3 4 5 6 7 8 9 / Top 100 tabs
Categorías
Usuarios
usuario:
Darse de alta
password:
Artistas más visitados
Publicidad
TOP acordes y tablaturas de Hamlet


Estás en: Inicio > Letra H > Acordes y tablaturas de Hamlet > Limítate
Limítate
de Hamlet
Puntúa este acorde/tab:      
(0.6/5)
Reportar este acorde/tab
  Añadir a tus favoritos
  Imprimir
Bueno, este ya es mi tercer tema en la red, junto con los dos de 
Skunk DF que tb podeis ver en el ATAME.

AFINACIÓN:de +aguda a +grave (c,g, d#,a#,f,a#) todas las
          cuerdas 4 trastes menos y la sexta 6 trastes

Riff 1:

c :-----------------------------º
g :-----------------------------º
d#:-----------------------------º
a#:-----------------------3-3-3-º
f :-3h5---5---------5-----------º
a#:-----0---0-0-0-0---0-0-------º

Riff 2:

c :----------------------º
g :----------------------º
d#:----------------------º
a#:-7--7--7--7--7-101010-º
f :-5--5--5--5--5-8-8-8--º
a#:----------------------º

Riff 3:

c :-----------------------------------º
g :-----------------------------------º
d#:-----------------------------------º
a#:-----------------------------------º
f :-5-xxxxxx5xx5p3-3p0------------0h3-º 
a#:--------------------3-xxxx3xx5-----º
PM/////////////////////////////////////

Riff 4:
c :---------------------------------------º
g :---------------------------------------º
d#:---------------------------------------º
a#:---------------------------------------º
f :-5-555-555-555p3-3p0---------------0h3-º
a#:---------------------3-333-335-5555----º

Riff 5:
c :----------------------------------º
g :----------------------------------º
d#:----------------------------------º
a#:-7--7--7--7/8-85-5---3--3--5--5--º
f :-5--5--5--5/6-63-3p0-3--3--5--5--º
a#:----------------------3--3--5--5--º

Riff 6:

c :--------------------------------------º
g :--------------------------------------º
d#:--------------------------------------º
a#:-0-0-0-00--00-3333--5-5-5-55--55-6666-º
f :-0-0-0-00--00-3333--5-5-5-55--55-6666-º
a#:-0-0-0-00--00-3333--5-5-5-55--55-6666-º

Riff 7:
Guitarra 1
c :----------------------------------º
g :----------------------------------º
d#:----------------------------------º
a#:----------------------------------º
f :-5--5--5--5/8-87-71-1-1-1p0-0-0-º
a#:----------------------------------º

Guitarra 2
c :----------------------------------º
g :----------------------------------º
d#:----------------------------------º
a#:----------------------------------º
f :-/5******************************-º
a#:----------------------------------º

Riff 8:
c :-----------------------------------º
g :-----------------------------------º
d#:-----------------------------------º
a#:-7--7--7--7/10109-93-3-3-3-2-2-2-º
f :-5--5--5--5/8-8-7-71-1-1-1-0-0-0-º
a#:-----------------------------------º

Riff 9:
c :----------------º
g :----------------º
d#:----------------º
a#:-0-0-0-0-00-333-º
f :-0-0-0-0-00-333-º
a#:-0-0-0-0-00-333-º

Riff 10:
c :-----º
g :-----º
d#:-----º
a#:-0---º
f :-0---º
a#:-0---º

Estructura:
INTRO: Riff 1 x8, Riff 2 x4
VERSO 1:Riff 3 x3, Riff 4 x1 
ESTRIBILLO 1:Riff 1 x4 Riff 2 x4(sabes quién soy?...
VERSO 2:Riff 5 x4 (hazme sñolo un gran favor...)
BREAK: Riff 6 X4
VERSO 3:Riff 7 x4 (en el fondo no hay lugar...)
ESTRIBILLO 2:Riff 8 x4
ESTRIBILLO 3: Riff 1 x4, Riff 9 x4 (limitate...)
Riff 10
Riff 1 (limpio, con algo de chorus y wah) x4

Ya está, que os divirtais, si teneis alguna duda de cuando
entra cada Riff, escuchad la canción. Nada Máis
Saludos a July, al Chino y a los de OURENROLLER!!!!
                                    Murciélago
		   
AcordesyTabs.com © 2008 Acordes y Tablaturas para guitarra. Tabs and Chords for guitar. Aviso Legal - Contacto
El uso de este sitio está sujeto a la aceptación de los términos y condiciones (41 usuarios online)