tablaturas, partituras y acordes para guitarra
Busca por banda/artista:
 
y/o título de la canción:
A B C D E F G H I J K L M N O P Q R S T U V W X Y Z 0 1 2 3 4 5 6 7 8 9 / Top 100 tabs
Categorías
Usuarios
usuario:
Darse de alta
password:
Artistas más visitados
Publicidad
TOP acordes y tablaturas de Green day


Brainstew
de Green day
Puntúa este acorde/tab:      
(0.4/5)
Reportar este acorde/tab
  Añadir a tus favoritos
  Imprimir

Hey all! This is the tabs for Green Day's "Brainstew/Jaded". They 
SOULDN'T be that hard to follow.  If you just listen to the song you 
will get the timing down.  Good luck!  Jen

=====================================================================
§~~~~~~~~~~~~~~~~~~~~~~~~~*Brainstew/Jaded*~~~~~~~~~~~~~~~~~~~~~~~~~§
=====================================================================
    -Words by Billie Joe, Music by Green Day, Tabbed by Me!

Tuning: 1/2 step down
Palm Muted Throughout Most of Songs
X just means to play the same notes over again for a while
      
     [this is the entire song of Brainstew pretty much repeated]
eb--------------------------------------------------------------------
Bb--------------------------------------------------------------------
Gb--------------------------------------------------------------------
Db--7-7--5-5--4-4--3-3--2-2-------------------------------------------
Ab--7-7--5-5--4-4--3-3--2-2-------------------------------------------
Eb--5-5--3-3--2-2--1-1--0-0-------------------------------------------  

     [the intro from Brainstew to jaded and pretty much that song]
eb--------------------------------------------------------------------
Bb--------------------------------------------------------------------
Gb----------7-5-----7-7-x-x-x-x-x-x-x---------------------------------
Db--7-7-7-5-7-5-----7-7-x-x-x-x-x-x-x---7-7-7-5-7-7-7-5---------------
Ab--7-7-7-5-5-3-----5-5-x-x-x-x-x-x-x---7-7-7-5-7-7-7-5---------------
Eb--5-5-5-3-----------------------------5-5-5-3-5-5-5-3---------------
  [intro/1st part]  "Always move..." and "There is no..."

Thats pretty much the entire 2 songs.  I hope ya get em...good luck!!

		   
AcordesyTabs.com © 2008 Acordes y Tablaturas para guitarra. Tabs and Chords for guitar. Aviso Legal - Contacto
El uso de este sitio está sujeto a la aceptación de los términos y condiciones (20 usuarios online)