tablaturas, partituras y acordes para guitarra
Busca por banda/artista:
 
y/o título de la canción:
A B C D E F G H I J K L M N O P Q R S T U V W X Y Z 0 1 2 3 4 5 6 7 8 9 / Top 100 tabs
Categorías
Usuarios
usuario:
Darse de alta
password:
Artistas más visitados
Publicidad
TOP acordes y tablaturas de Eagles


Estás en: Inicio > Letra E > Acordes y tablaturas de Eagles > After the thrill is gone
After the thrill is gone
de Eagles
Puntúa este acorde/tab:      
(0.6/5)
Reportar este acorde/tab
  Añadir a tus favoritos
  Imprimir
Intro: 
	G	C	   G	   C 
	Am	G  Gsus4   Am	   G 

Intro: 

|-10/12-12---5/7-|-xx-5--5/7---3/5---|-10/1210--5/7--| 
|-10/12-12---5/7-|-xx-5--5/7---3/5---|-10/1210--5/7--| 
|---------------------|---------------------|-------------------| 
|---------------------|---------------------|-------------------| 
|---------------------|---------------------|-------------------| 
|---------------------|---------------------|-------------------| 


|-5///7-----3--------|--/5------/5--3-------|----5/7--10--10/12--10----/75--| 
|-5///7-----3h5------|--/5------/5--3-------|----5/7--8----8/10---8----/75--| 
|--------------------|----------------------|---------------------------------| 
|--------------------|----------------------|---------------------------------| 
|--------------------|----------------------|---------------------------------| 
|--------------------|----------------------|---------------------------------| 

						        Same dancers in the 
|---3/5---5/7---5--3/5--3-|---------------------|-----------------| 
|---3/5---5/7---5--3/5--3-|------------/3---|--1//3-----------| 
|-------------------------|------------/4---|--2//4-----------| 
|-------------------------|---------------------|-----------------| 
|-------------------------|---------------------|-----------------| 
|-------------------------|---------------------|-----------------| 


 same old shoes 
|---------------------|----------| 
|------------/3---|--1//3----| 
|------------/4---|--2//4----| 
|---------------------|----------| 
|---------------------|----------| 
|---------------------|----------| 


Some habits that you just can't lose		 There's no tellin what a  
|----------------------------------------------|-------------------| 
|----------------------------------------------|-------------------| 
|----------------------------------------------|-------------------| 
|----------------------------------------------|-------------------| 
|-----------------------------------3------2---|-0-----------------| 
|----------------------------------------------|-------------------| 

  man might use 
|-----------------------------| 
|-----------------------------| 
|-----------------------------| 
|-----------------------------| 
|-------------------3//5---0--| 




Verse: 
G		     C 
  Same dances in the same old shoes, 
G		       C 
  Some habits that you just can't lose. 
C/B  Am				  G 
	There's no telling what a man might use 
Am			G	D  C 
After the thrill is gone. 

The flame rises but it soon descends, 
Empty pages and a frozen pen. 
You're not quite lovers and you're not quite friends 
Am			G     Am		    G   G/F# 
After the thrill is gone, oh, after the thrill is gone. 

Bridge 1: 
Em			     Bm7 
What can you do when your dreams come true 
	 Am7			   G 
And it's not quite like you planned? 
     Em				Bm7 
O-oh What have you done to be losing the war, 
    Cm				C/D 
You held it so tight in your hands, well. 

Verse: 
Time passes and you must move on. 
Half the distance takes you twice as long. 
So you keep on singing for the sake of the song 
After the thrill is gone. 

guitar solo 
	G	C	G	C 
	Am	G	Am	G 

Bridge 2: 
You're afraid you might fall out of fashion 
And you're feeling cold and small. 
O-oh Any kind of love without passion, 
that ain't no kind of loving at all, well. 

Verse: 
Same dances in the same old shoes. 
You get too careful with the steps you choose. 
You don't care about winning but you don't want to lose 
After the thrill is gone, after the thrill is gone, 
Am			      Cm		    G 
After the thrill is gone, oh, after the thrill is   gone. 

C  Cm7	G 


CHORDS: 

Gsus4	3x0013		C/B	x20010 
G/F#	2x000x		C/D	x5555x 
. . . After the thrill is gone                                  What can you do when your 
|-----------------------------|----------------------------------|--------0-------| 
|-----------------------------|----------------------------------|--------0-------| 
|-----------------------------|-----------0------------0---------|--------0-------| 
|-----------------------------|------0--------0------------------|--------2-------| 
|-----------------------------|----------------------------------|-2--------------| 
|-----------------------------|--3-----------------2-------------|-0--------------| 

  dreams come true and it's not quite like you planned? 
|-------------------------|-------------------|------------------------------------| 
|-------------------------|-------------------|------------------------------------| 
|--------2----------------|-------------------|-------------------0---2p0----------| 
|----0--------------------|-------------------|--0--------0---0h2---0-----2p0------| 
|-2---------2-------------|-------------------|-------0h2---0-----------------2p0--| 
|-------------------------|-------------------|--3---------------------------------| 

 
Solo: 
  gone.									      1 
  +   +   +   +      +   +   +    +	  +    +     +        +      +    +    +   + 
|------------------|--------------------|--------------------------|-------------------| 
|--!---------------|--------------------|-----------------------8--|----------15^--15--| 
|-12-----/9---7--9-|--------------------|-5----------5---7--7/9----|-9-7---------------| 
|------------------|-9---------5-/9-7p5-|--------5h7---------------|-------------------| 
|------------------|--------/7----------|--------------------------|-------------------| 
|------------------|--------------------|--------------------------|-------------------| 

								    1 
  +         +            +           +            +   +     +     + 
|--------------------------------------------|-------------------------------| 
|-13p12-13--12h13p12-------------------------|--------------------14^--14-12-| 
|--------------------14--12h14p12----12------|-----------------12------------| 
|---------------------------------14----14---|-----------12-14---------------| 
|-----------------------------------------14-|-14/15-------------------------| 
|--------------------------------------------|-------------------------------| 

    1						    1 
  +     +        +       +          +   +   +     + 
|----15---------------------------|------------------------| 
|---------------------------------|---------13-12-15^--15--| 
|-14^---r(14)------------------12-|-14---------------------| 
|-------------12---------12h14----|------------------------| 
|---------------------------------|------------------------| 
|---------------------------------|------------------------| 

        1 
  +   +	       +           +             + 
|-----19^r(19)-15----------------------|----------| 
|-----------------12h13p12-------------|----------| 
|--------------------------14p12-------|----------| 
|--------------------------------14p12-|----------| 
|--------------------------------------|-14------| 
|--------------------------------------|----------| 

 
Outro: 
  +      +     +        +      +   +   +   + 
|-----10/12-12---5/7--3-|-5/7------------|-3------(3)///////(10)----| 
|-----10/12-12---5/7--3-|-5/7------------|-3------------------------| 
|----------------------------|-------8-(8)--|-4------------------------| 
|----------------------------|----------------|--------------------------| 
|----------------------------|----------------|--------------------------| 
|----------------------------|----------------|--------------------------|
		   
AcordesyTabs.com © 2008 Acordes y Tablaturas para guitarra. Tabs and Chords for guitar. Aviso Legal - Contacto
El uso de este sitio está sujeto a la aceptación de los términos y condiciones (33 usuarios online)