tablaturas, partituras y acordes para guitarra
Busca por banda/artista:
 
y/o título de la canción:
A B C D E F G H I J K L M N O P Q R S T U V W X Y Z 0 1 2 3 4 5 6 7 8 9 / Top 100 tabs
Categorías
Usuarios
usuario:
Darse de alta
password:
Artistas más visitados
Publicidad
TOP acordes y tablaturas de Attaque 77


Estás en: Inicio > Letra A > Acordes y tablaturas de Attaque 77 > Guerra en el complejo habitacional
Guerra en el complejo habitacional
de Attaque 77
Puntúa este acorde/tab:      
(0.6/5)
Reportar este acorde/tab
  Añadir a tus favoritos
  Imprimir
*En todo el tema 'D' va ligado a 'E', excepto los 'D' de la 2da parte del Solo*

Intro: 
e---------------|
B--17-----19----|
G---------------| (DE DE DE  G-D)x2
D---------------|
E---------------|
E---------------|

      D  E             
Los sueldos están mal.
    D  E
La gente esta peor.
	 D E	           G-D
No hay plata que gastar.

No hay nada para hacer.
El vino se acabó.
Todos se miran mal.	

Demasiada tensión
hay en el monoblock.
No se puede evitar.

  C			   A
Guerra en el complejo habitacional.
B  C                        A
 Guerra en el complejo habitacional.
B  C			    A         A# B
 Guerra en el complejo habitacional.

Un presidente va
volando la ciudad
en su avión particular.

Algunos desde acá
también quieren volar
y aspiran poxirán.

Perdieron el control.
Hay cuentas que saldar
y empiezan a pelear.

Guerra en el complejo habitacional.
Guerra en el complejo habitacional.
Guerra en el complejo habitacional.

Solo: (DE DE DE G-D) x2 (F G D)x3 F G A

   D E                  G     D
e----------------|   |------------|
B--7/9-----12----|   |--12--9s12--|
G--7/9-9-9-129--|x3 |--12--9s12--|
D----------------|   |------------|
A----------------|   |------------|
E----------------|   |------------|

   D E                  G   D
e----------------|   |---------|
B--7/9-----12----|   |--12--9--|
G--7/9-9-9-129--|x3 |--12--9--|
D----------------|   |---------|
A----------------|   |---------|
E----------------|   |---------|

   F   G    D        F   G    A
e---------    |   |---------    |
B--6---8--    |   |--6---8--    |
G---------    |x3 |---------    |
D---------    |   |---------    |
E---------    |   |---------    |
E---------    |   |---------    |


Ahi viene el celular.
Ya todo terminó.
Adentro una vez más.

De que sirve pelear
si no es para enfrentar
a un enemigo real.

Sos carne de cañón
o acaso no escuchás
que nadie quiere más.

Guerra en el complejo habitacional.
Guerra en el complejo habitacional.
Guerra en el complejo habitacional.

Guerra en el complejo habitacional.
Guerra en el complejo habitacional.
Guerra en el complejo habitacional.

Guerra en el complejo habitacional.
Guerra en el complejo habitacional.
B  C			         B     E
 Guerra en el complejo habitacional.
		   
AcordesyTabs.com © 2008 Acordes y Tablaturas para guitarra. Tabs and Chords for guitar. Aviso Legal - Contacto
El uso de este sitio está sujeto a la aceptación de los términos y condiciones (15 usuarios online)