tablaturas, partituras y acordes para guitarra
Busca por banda/artista:
 
y/o título de la canción:
A B C D E F G H I J K L M N O P Q R S T U V W X Y Z 0 1 2 3 4 5 6 7 8 9 / Top 100 tabs
Categorías
Usuarios
usuario:
Darse de alta
password:
Artistas más visitados
Publicidad
TOP acordes y tablaturas de Rata Blanca


Estás en: Inicio > Letra R > Acordes y tablaturas de Rata Blanca > Guerreros del arco iris
Guerreros del arco iris
de Rata Blanca
Puntúa este acorde/tab:      
(0.5/5)
Reportar este acorde/tab
  Añadir a tus favoritos
  Imprimir
                                                            
G||--------------|--------------|--------------------------|
D||--------------|--------------|--2-2-2-2-2-2-0-0-0-0-0-0-|
A||--------------|--------------|--------------------------|
E||--------------|--------------|--------------------------|


                                                                           
--------------------------|-----------------------|-----------------------|
--------------------------|-----------------------|-----------------------|
--3-3-3-3-3-3-2-2-2-2-2-2-|--0-0-0-0-0-0-3--5--7--|--0-0-0-0-0-0-8--7--5--|
--------------------------|-----------------------|-----------------------|


                                                                     
-----------------------|--------------------|-----------------------|
-----------------------|--------------------|-----------------------|
--0-0-0-0-0-0-3--5--7--|--8--7--5--7--5--3--|--0-0-0-0-0-0-3--5--7--|
-----------------------|--------------------|-----------------------|


                                                                     
-----------------------|-----------------------|--------------------|
-----------------------|-----------------------|--------------------|
--0-0-0-0-0-0-8--7--5--|--0-0-0-0-0-0-3--5--7--|--8--7--5--7--5--3--|
-----------------------|-----------------------|--------------------|


                                                                        
-----------------------|-----------------------|-----------------------|
-----------------------|-----------------------|-----------------------|
--0-0-0-0-0-0-3--5--7--|--0-0-0-0-0-0-8--7--5--|--0-0-0-0-0-0-3--5--7--|
-----------------------|-----------------------|-----------------------|


                                                                     
--------------------|-----------------------|-----------------------|
--------------------|-----------------------|-----------------------|
--8--7--5--7--5--3--|--0-0-0-0-0-0-3--5--7--|--0-0-0-0-0-0-8--7--5--|
--------------------|-----------------------|-----------------------|


                                                                              
-----------------------|--------------------------|--------------------------|
-----------------------|--------------------------|--------------------------|
--0-0-0-0-0-0-3--5--7--|--8-7-5-7-5-3-5-3-2-3-2-0-|--------------------------|
-----------------------|--------------------------|--4-2-2-2-2-2-4-2-2-2-2-2-|


                                                      
--------------------------|--------------------------|
--------------------------|--------------------------|
--------------------------|--------------------------|
--4-2-2-2-4-5-5-5-4-2-0-0-|--4-2-2-2-2-2-4-2-2-2-2-2-|


                                                      
--------------------------|--------------------------|
--------------------------|--------------------------|
--------------------------|--------------------------|
--4-2-2-2-4-5-5-5-4-2-0-0-|--4-2-2-2-2-2-4-2-2-2-2-2-|


                                                      
--------------------------|--------------------------|
--------------------------|--------------------------|
--------------------------|--------------------------|
--4-2-2-2-4-5-5-5-4-2-0-0-|--4-2-2-2-2-2-4-2-2-2-2-2-|


                                                      
--------------------------|--------------------------|
--------------------------|--------------------------|
--------------------------|--------------------------|
--4-2-2-2-4-5-5-5-4-2-0-0-|--4-2-2-2-2-2-4-2-2-2-2-2-|


                                                      
--------------------------|--------------------------|
--------------------------|--------------------------|
--------------------------|--------------------------|
--4-2-2-2-4-5-5-5-4-2-0-0-|--4-2-2-2-2-2-4-2-2-2-2-2-|


                                                      
--------------------------|--------------------------|
--------------------------|--------------------------|
--------------------------|--------------------------|
--4-2-2-2-4-5-5-5-4-2-0-0-|--4-2-2-2-2-2-4-2-2-2-2-2-|


                                                                       
--------------------------|--------------------------|----------------|
--------------------------|--------------------------|----------------|
--------------------------|--------------------------|--5-------------|
--4-2-2-2-4-5-5-5-4-2-0-0-|--4-2-2-2-2-2-4-2-2-2-2-2-|---------0------|


                                                      
--------------------------|--------------------------|
--------------------------|--2-2-2-2-2-2-2-2-2-2-2-2-|
--------------------------|--------------------------|
--5-5-5-5-5-5-5-5-5-5-5-5-|--------------------------|


                                                      
--------------------------|--------------------------|
--4-4-4-4-4-4-4-4-4-4-4-4-|--------------------------|
--------------------------|--4-4-4-4-4-4-4-4-4-4-4-4-|
--------------------------|--------------------------|


                                                      
--------------------------|--------------------------|
--0-0-0-0-0-0-0-0-0-0-0-0-|--1-1-1-1-1-1-1-1-1-1-1-1-|
--------------------------|--------------------------|
--------------------------|--------------------------|


                                                                              
--------------------------|--1-1-1-1-1-1-1--1--1--|--2-2-2-2-2-2-2-2-2-2-2-2-|
--2-2-2-2-2-2-2-2-2-2-2-2-|-----------------------|--------------------------|
--------------------------|-----------------------|--------------------------|
--------------------------|-----------------------|--------------------------|


                                                      
--------------------------|--------------------------|
--2-2-2-2-2-2-2-2-2-2-2-2-|--4-4-4-4-4-4-4-4-4-4-4-4-|
--------------------------|--------------------------|
--------------------------|--------------------------|


                                                      
--------------------------|--------------------------|
--------------------------|--0-0-0-0-0-0-0-0-0-0-0-0-|
--4-4-4-4-4-4-4-4-4-4-4-4-|--------------------------|
--------------------------|--------------------------|


                                                                       
--------------------------|--------------------------|----------------|
--1-1-1-1-1-1-1-1-1-1-1-1-|--------------------------|----------------|
--------------------------|--4-4-4-4-4-4-4-4-4-4-4-4-|--5-------------|
--------------------------|--------------------------|---------0------|


                                                                        
-----------------------|-----------------------|-----------------------|
-----------------------|-----------------------|-----------------------|
--0-0-0-0-0-0-3--5--7--|--0-0-0-0-0-0-8--7--5--|--0-0-0-0-0-0-3--5--7--|
-----------------------|-----------------------|-----------------------|


                                                                     
--------------------|-----------------------|-----------------------|
--------------------|-----------------------|-----------------------|
--8--7--5--7--5--3--|--0-0-0-0-0-0-3--5--7--|--0-0-0-0-0-0-8--7--5--|
--------------------|-----------------------|-----------------------|


                                                                     
-----------------------|--------------------|-----------------------|
-----------------------|--------------------|-----------------------|
--0-0-0-0-0-0-3--5--7--|--8--7--5--7--5--3--|--0-0-0-0-0-0-3--5--7--|
-----------------------|--------------------|-----------------------|


                                                                     
-----------------------|-----------------------|--------------------|
-----------------------|-----------------------|--------------------|
--0-0-0-0-0-0-8--7--5--|--0-0-0-0-0-0-3--5--7--|--8--7--5--7--5--3--|
-----------------------|-----------------------|--------------------|


                                                                        
-----------------------|-----------------------|-----------------------|
-----------------------|-----------------------|-----------------------|
--0-0-0-0-0-0-3--5--7--|--0-0-0-0-0-0-8--7--5--|--0-0-0-0-0-0-3--5--7--|
-----------------------|-----------------------|-----------------------|


                                                      
--------------------------|--------------------------|
--------------------------|--------------------------|
--8-7-5-7-5-3-5-3-2-3-2-0-|--------------------------|
--------------------------|--4-2-2-2-2-2-4-2-2-2-2-2-|


                                                      
--------------------------|--------------------------|
--------------------------|--------------------------|
--------------------------|--------------------------|
--4-2-2-2-4-5-5-5-4-2-0-0-|--4-2-2-2-2-2-4-2-2-2-2-2-|


                                                      
--------------------------|--------------------------|
--------------------------|--------------------------|
--------------------------|--------------------------|
--4-2-2-2-4-5-5-5-4-2-0-0-|--4-2-2-2-2-2-4-2-2-2-2-2-|


                                                      
--------------------------|--------------------------|
--------------------------|--------------------------|
--------------------------|--------------------------|
--4-2-2-2-4-5-5-5-4-2-0-0-|--4-2-2-2-2-2-4-2-2-2-2-2-|


                                                      
--------------------------|--------------------------|
--------------------------|--------------------------|
--------------------------|--------------------------|
--4-2-2-2-4-5-5-5-4-2-0-0-|--4-2-2-2-2-2-4-2-2-2-2-2-|


                                                      
--------------------------|--------------------------|
--------------------------|--------------------------|
--------------------------|--------------------------|
--4-2-2-2-4-5-5-5-4-2-0-0-|--4-2-2-2-2-2-4-2-2-2-2-2-|


                                                      
--------------------------|--------------------------|
--------------------------|--------------------------|
--------------------------|--------------------------|
--4-2-2-2-4-5-5-5-4-2-0-0-|--4-2-2-2-2-2-4-2-2-2-2-2-|


                                                                       
--------------------------|--------------------------|----------------|
--------------------------|--------------------------|----------------|
--------------------------|--------------------------|--5-------------|
--4-2-2-2-4-5-5-5-4-2-0-0-|--4-2-2-2-2-2-4-2-2-2-2-2-|---------0------|


                                                      
--------------------------|--------------------------|
--------------------------|--2-2-2-2-2-2-2-2-2-2-2-2-|
--------------------------|--------------------------|
--5-5-5-5-5-5-5-5-5-5-5-5-|--------------------------|


                                                      
--------------------------|--------------------------|
--4-4-4-4-4-4-4-4-4-4-4-4-|--------------------------|
--------------------------|--4-4-4-4-4-4-4-4-4-4-4-4-|
--------------------------|--------------------------|


                                                      
--------------------------|--------------------------|
--0-0-0-0-0-0-0-0-0-0-0-0-|--1-1-1-1-1-1-1-1-1-1-1-1-|
--------------------------|--------------------------|
--------------------------|--------------------------|


                                                                              
--------------------------|--1-1-1-1-1-1-1--1--1--|--2-2-2-2-2-2-2-2-2-2-2-2-|
--2-2-2-2-2-2-2-2-2-2-2-2-|-----------------------|--------------------------|
--------------------------|-----------------------|--------------------------|
--------------------------|-----------------------|--------------------------|


                                                      
--------------------------|--------------------------|
--2-2-2-2-2-2-2-2-2-2-2-2-|--4-4-4-4-4-4-4-4-4-4-4-4-|
--------------------------|--------------------------|
--------------------------|--------------------------|


                                                      
--------------------------|--------------------------|
--------------------------|--0-0-0-0-0-0-0-0-0-0-0-0-|
--4-4-4-4-4-4-4-4-4-4-4-4-|--------------------------|
--------------------------|--------------------------|


                                                      
--------------------------|--------------------------|
--1-1-1-1-1-1-1-1-1-1-1-1-|--------------------------|
--------------------------|--------------------------|
--------------------------|--0-0-0-0-0-0-2-2-2-2-2-2-|


                                                                          
--------------------------|---------------|--------------|---------------|
--------------------------|---------------|--------------|--0------------|
--------------------------|--2------------|--------------|---------------|
--4-4-4-4-4-4-5-5-5-5-5-5-|---------------|--------------|---------------|


                                                                             
--------------|---------------|--------------|---------------|--------------|
--------------|---------------|--------------|--2------------|--------------|
--------------|--0------------|--------------|---------------|--------------|
--------------|---------------|--------------|---------------|--------------|


                                                                    
----------------|----------------|----------------|----------------|
----------------|----------------|--0-----------0-|--0---0---------|
--2-----------2-|--2---2---------|----------------|----------------|
----------------|----------------|----------------|----------------|


                                                             
----------------|----------------|--1-1-1-1-1-1-1-1-1-1-1-1-|
--2-----------2-|--2---2---------|--------------------------|
----------------|----------------|--------------------------|
----------------|----------------|--------------------------|


                                                                     
--------------------------|--------------------|--------------------|
--2-2-2-2-2-2-2-2-2-2-2-2-|--------------------|--2--2-2---2--2-2---|
--------------------------|--0--0-0---0--0-0---|--------------------|
--------------------------|--------------------|--------------------|


                                                               
--------------------|--------------------|--------------------|
--------------------|--------------------|--0--0-0---0--0-0---|
--------------------|--4--4-4---4--4-4---|--------------------|
--2--2-2---2--2-2---|--------------------|--------------------|


                                                                 
--------------------|--------------------|-----------1--1-1-1-1-|
--1--1-1---1--1-1---|--2--2-2---2--2-2---|--2--2----------------|
--------------------|--------------------|----------------------|
--------------------|--------------------|----------------------|


                                                               
--------------------|--------------------|--------------------|
--------------------|--2--2-2---2--2-2---|--------------------|
--0--0-0---0--0-0---|--------------------|--------------------|
--------------------|--------------------|--2--2-2---2--2-2---|


                                                               
--------------------|--------------------|--------------------|
--------------------|--0--0-0---0--0-0---|--1--1-1---1--1-1---|
--4--4-4---4--4-4---|--------------------|--------------------|
--------------------|--------------------|--------------------|


                                                      
--------------------------|--------------------------|
--------------------------|--0-0-0-0-0-0-2-2-2-2-2-2-|
--4-4-4-4-4-4-4-4-4-4-4-4-|--------------------------|
--------------------------|--------------------------|


                                                      
--------------------------|--------------------------|
--------------------------|--------------------------|
--------------------------|--------------------------|
--2-2-2-2-2-2-2-2-2-2-2-2-|--2-2-2-2-2-2-2-2-2-2-2-2-|


                                                                             
--------------------------|----------------------|--------------------------|
--------------------------|--------------4---2---|--------------------------|
--------------------------|----------------------|--------------------------|
--2-2-2-2-2-2-2-2-2-2-2-2-|--2-2-2-2-2-2---------|--2-2-2-2-2-2-2-2-2-2-2-2-|


                                                                             
--------------------------|--------------------------|----------------------|
--------------------------|--------------------------|--------------4---2---|
--------------------------|--------------------------|----------------------|
--2-2-2-2-2-2-2-2-2-2-2-2-|--2-2-2-2-2-2-2-2-2-2-2-2-|--2-2-2-2-2-2---------|


                                                      
--------------------------|--------------------------|
--------------------------|--------------------------|
--------------------------|--------------------------|
--2-2-2-2-2-2-2-2-2-2-2-2-|--2-2-2-2-2-2-2-2-2-2-2-2-|


                                                                             
--------------------------|----------------------|--------------------------|
--------------------------|--------------4---2---|--------------------------|
--------------------------|----------------------|--------------------------|
--2-2-2-2-2-2-2-2-2-2-2-2-|--2-2-2-2-2-2---------|--2-2-2-2-2-2-2-2-2-2-2-2-|


                                                                             
--------------------------|--------------------------|----------------------|
--------------------------|--------------------------|--------------4---2---|
--------------------------|--------------------------|----------------------|
--2-2-2-2-2-2-2-2-2-2-2-2-|--2-2-2-2-2-2-2-2-2-2-2-2-|--2-2-2-2-2-2---------|


                                                                              
-----11h14----11h14----11h14----11h14-|-----11h14----11h14----11h14----11h14-|
--12-------12-------12-------12-------|--13-------13-------13-------13-------|
--------------------------------------|--------------------------------------|
--------------------------------------|--------------------------------------|


                                                                              
-----13h16----13h16----13h16----13h16-|---------------|----------------------|
--14-------14-------14-------14-------|---------------|----------------------|
--------------------------------------|---------------|--------------2--0----|
--------------------------------------|--1------------|--2-2-2-2-2-2---------|


                                                              
----------------------|----------------------|---------------|
----------------------|----------------------|---------------|
--------------2--3----|--------------2--0----|---------------|
--2-2-2-2-2-2---------|--2-2-2-2-2-2---------|--0------------|


                                                                     
----------------------|----------------------|----------------------|
----------------------|----------------------|----------------------|
--------------2--0----|--------------2--3----|--------------2--0----|
--2-2-2-2-2-2---------|--2-2-2-2-2-2---------|--2-2-2-2-2-2---------|


                                                                      
---------------|--------------------------|--------------------------|
---------------|--------------------------|--------------------------|
--7------------|--------------------------|--------------------------|
---------------|--4-2-2-2-2-2-4-2-2-2-2-2-|--4-2-2-2-4-5-5-5-4-2-0-0-|


                                                      
--------------------------|--------------------------|
--------------------------|--------------------------|
--------------------------|--------------------------|
--4-2-2-2-2-2-4-2-2-2-2-2-|--4-2-2-2-4-5-5-5-4-2-0-0-|


                                                      
--------------------------|--------------------------|
--------------------------|--------------------------|
--------------------------|--------------------------|
--4-2-2-2-2-2-4-2-2-2-2-2-|--4-2-2-2-4-5-5-5-4-2-0-0-|


                                                      
--------------------------|--------------------------|
--------------------------|--------------------------|
--------------------------|--------------------------|
--4-2-2-2-2-2-4-2-2-2-2-2-|--4-2-2-2-4-5-5-5-4-2-0-0-|


                                                      
--------------------------|--------------------------|
--------------------------|--------------------------|
--------------------------|--------------------------|
--4-2-2-2-2-2-4-2-2-2-2-2-|--4-2-2-2-4-5-5-5-4-2-0-0-|


                                                      
--------------------------|--------------------------|
--------------------------|--------------------------|
--------------------------|--------------------------|
--4-2-2-2-2-2-4-2-2-2-2-2-|--4-2-2-2-4-5-5-5-4-2-0-0-|


                                                      
--------------------------|--------------------------|
--------------------------|--------------------------|
--------------------------|--------------------------|
--4-2-2-2-2-2-4-2-2-2-2-2-|--4-2-2-2-4-5-5-5-4-2-0-0-|


                                                                       
--------------------------|----------------|--------------------------|
--------------------------|--0-------------|--------------------------|
--------------------------|----------------|--------------------------|
--4-2-2-2-2-2-4-2-2-2-2-2-|---------0------|--5-5-5-5-5-5-5-5-5-5-5-5-|


                                                      
--------------------------|--------------------------|
--2-2-2-2-2-2-2-2-2-2-2-2-|--4-4-4-4-4-4-4-4-4-4-4-4-|
--------------------------|--------------------------|
--------------------------|--------------------------|


                                                      
--------------------------|--------------------------|
--------------------------|--0-0-0-0-0-0-0-0-0-0-0-0-|
--4-4-4-4-4-4-4-4-4-4-4-4-|--------------------------|
--------------------------|--------------------------|


                                                                              
--------------------------|--------------------------|--1-1-1-1-1-1-1--1--1--|
--1-1-1-1-1-1-1-1-1-1-1-1-|--2-2-2-2-2-2-2-2-2-2-2-2-|-----------------------|
--------------------------|--------------------------|-----------------------|
--------------------------|--------------------------|-----------------------|


                                                      
--2-2-2-2-2-2-2-2-2-2-2-2-|--------------------------|
--------------------------|--2-2-2-2-2-2-2-2-2-2-2-2-|
--------------------------|--------------------------|
--------------------------|--------------------------|


                                                      
--------------------------|--------------------------|
--4-4-4-4-4-4-4-4-4-4-4-4-|--------------------------|
--------------------------|--4-4-4-4-4-4-4-4-4-4-4-4-|
--------------------------|--------------------------|


                                                      
--------------------------|--------------------------|
--0-0-0-0-0-0-0-0-0-0-0-0-|--1-1-1-1-1-1-1-1-1-1-1-1-|
--------------------------|--------------------------|
--------------------------|--------------------------|


                                                                    
--------------------------|----------------|-----------------------|
--------------------------|----------------|-----------------------|
--4-4-4-4-4-4-4-4-4-4-4-4-|--5-------------|--0-0-0-0-0-0-3--5--7--|
--------------------------|---------0------|-----------------------|


                                                                     
-----------------------|-----------------------|--------------------|
-----------------------|-----------------------|--------------------|
--0-0-0-0-0-0-8--7--5--|--0-0-0-0-0-0-3--5--7--|--8--7--5--7--5--3--|
-----------------------|-----------------------|--------------------|


                                                                        
-----------------------|-----------------------|-----------------------|
-----------------------|-----------------------|-----------------------|
--0-0-0-0-0-0-3--5--7--|--0-0-0-0-0-0-8--7--5--|--0-0-0-0-0-0-3--5--7--|
-----------------------|-----------------------|-----------------------|


                                                                     
--------------------|-----------------------|-----------------------|
--------------------|-----------------------|-----------------------|
--8--7--5--7--5--3--|--0-0-0-0-0-0-3--5--7--|--0-0-0-0-0-0-8--7--5--|
--------------------|-----------------------|-----------------------|


                                                                     
-----------------------|--------------------|-----------------------|
-----------------------|--------------------|-----------------------|
--0-0-0-0-0-0-3--5--7--|--8--7--5--7--5--3--|--0-0-0-0-0-0-3--5--7--|
-----------------------|--------------------|-----------------------|


                                                                              
-----------------------|--------------1-1-1-1-1-1-|--4-4-4-4-4-4-7-7-7-7-7-7-|
-----------------------|--3-3-3-3-3-3-------------|--------------------------|
--0-0-0-0-0-0-8--7--5--|--------------------------|--------------------------|
-----------------------|--------------------------|--------------------------|


                                                                               
---------------|----------------|--------------|--------------|--------------||
--7------------|----------------|--------------|--------------|--------------||
---------------|-------------3--|--------------|--------------|--------------||
---------------|------3---------|--------------|--------------|--------------||
		   
AcordesyTabs.com © 2008 Acordes y Tablaturas para guitarra. Tabs and Chords for guitar. Aviso Legal - Contacto
El uso de este sitio está sujeto a la aceptación de los términos y condiciones (73 usuarios online)