tablaturas, partituras y acordes para guitarra
Busca por banda/artista:
 
y/o título de la canción:
A B C D E F G H I J K L M N O P Q R S T U V W X Y Z 0 1 2 3 4 5 6 7 8 9 / Top 100 tabs
Categorías
Usuarios
usuario:
Darse de alta
password:
Artistas más visitados
Publicidad
TOP acordes y tablaturas de Dave matthews band


Deed is done
de Dave matthews band
Puntúa este acorde/tab:      
(0.1/5)
Reportar este acorde/tab
  Añadir a tus favoritos
  Imprimir

========================================
      Artist: Dave Matthews Band
         Song: Deed Is Done
     Submitted By: Chris McAleenan
========================================

The whole song it prety much this:
E---------------------------------------
B---------------------------------------
G---------------------------------------
D---------------------------------------
A-----7-----6-----5-----4---------------
E---7-----7-----7-----7-----------------


Or this:
E---------------------------------------
B---------------------------------------
G------9-----8------7-----6-------------
D------x-----x------x-----x-------------
A----7----6------5-----4----------------
E---------------------------------------



Or this:
E--------------------------------------- 
B---------------------------------------
G-------4-----4-----4-----4-------------
D-------x-----x-----x-----x-------------
A----7-----6-----5-----4----------------
E---------------------------------------


*or some variation of these
========================================
  My e-mail is disco_stu12@hotmail.com
========================================

		   
AcordesyTabs.com © 2008 Acordes y Tablaturas para guitarra. Tabs and Chords for guitar. Aviso Legal - Contacto
El uso de este sitio está sujeto a la aceptación de los términos y condiciones (23 usuarios online)