tablaturas, partituras y acordes para guitarra
Busca por banda/artista:
 
y/o título de la canción:
A B C D E F G H I J K L M N O P Q R S T U V W X Y Z 0 1 2 3 4 5 6 7 8 9 / Top 100 tabs
Categorías
Usuarios
usuario:
Darse de alta
password:
Artistas más visitados
Publicidad
TOP acordes y tablaturas de Sum 41


Estás en: Inicio > Letra S > Acordes y tablaturas de Sum 41 > Fat lip drop d
Fat lip drop d
de Sum 41
Puntúa este acorde/tab:      
(0.8/5)
Reportar este acorde/tab
  Añadir a tus favoritos
  Imprimir

SONG: FAT LIP
BAND: SUM 41
TABBER: BRADLEY BAUER
EMAIL: ESPMARSHALL@HOTMAIL.COM 

I was sick of seeing tabs of this song that were half finished or sounded 
nothin like the song so I spent 2 and a half hours of my time doin this.  
I've tabbed both guitars which should make some people happy.  If you dont
think this is 99% accurate then you must play bass.

Email me or somethin if you have a comment...

Guitartabs.cc should have a rating system like other sites



INTRO: X2
Guitar 1
e-------------------------------------------------------------
b-------------------------------------------------------------
g-------------------------------------------------------------
d--------6-------4-------6-------4-2--------------------------
a-------------------------------------------------------------
E--6-7-9---6-7-9---6-7-9---6-7-9------------------------------


Guitar 1 X2                   Guitar 2 X2
e-------------------------------|----------------------------------
b-------------------------------|----------------------------------
g-------------------------------|----------------------------------
d--022-6-022-4-022-6-022-4-2----|--0222-0227-0222-0227-------------
a--022---022---022---022--------|--0222-0227-0222-0227-------------
E--022---022---022---022--------|--0222-0227-0222-0227-------------


VERSE PART 1:
Guitar 1 X2                    Guitar 2 X1 (play this the second time when you hear it on cd)
e----------------------------|----------------------------------
b----------------------------|----------------------------------
g-------44-------------------|----989---------------------------
d-2-212-44-77-212------------|----xxx---------------------------
a-2-----22-77-----0----------|----767---------------------------
E-2--------77-------6-4------|----------------------------------


VERSE PART 2:
Guitar 1 X2                               Guitar 2                    
e---------------------------------------|-------------------------------------------
b---------------------------------------|-------------------------------------------
g-----------------666-666---------------|-------------------------------------------
d-222-222-222-222-666-666-777-777-------|----------------7--------------------------
a-222-222-222-222-444-444-777-777-------|----------------7--------------------------
E-222-222-222-222---------777 777-------|--pick slide to-7-when needed--------------
pm..  ..  ..  ..  ..  ..  ..  ..

  
CHORUS:
Guitar 1 and 2 X2
e------------------------------------------------------------------------------
b------------------------------------------------------------------------------
g-99----6666-------------------------------------------------------------------
d-99-99-6666-66-77-66-77-------------------------------------------------------
a-77-99-4444-66-77-66-77-------------------------------------------------------
E----99------66-77-66-77-------------------------------------------------------


Guitar 1 X2                   Guitar 2 X2
e-------------------------------|----------------------------------
b-------------------------------|----------------------------------
g-------------------------------|----------------------------------
d--022-6-022-4-022-6-022-4-2----|--0222-0227-0222-0227-------------
a--022---022---022---022--------|--0222-0227-0222-0227-------------
E--022---022---022---022--------|--0222-0227-0222-0227-------------


VERSE PART 1:
Guitar 1 X2                    Guitar 2 X1 (play this the second time when you hear it on cd)
e----------------------------|----------------------------------
b----------------------------|----------------------------------
g-------44-------------------|----989---------------------------
d-2-212-44-77-212------------|----xxx---------------------------
a-2-----22-77-----0----------|----767---------------------------
E-2--------77-------6-4------|----------------------------------


VERSE PART 2:
Guitar 1 X2                               Guitar 2                    
e---------------------------------------|-------------------------------------------
b---------------------------------------|-------------------------------------------
g-----------------666-666---------------|-------------------------------------------
d-222-222-222-222-666-666-777-777-------|----------------7--------------------------
a-222-222-222-222-444-444-777-777-------|----------------7--------------------------
E-222-222-222-222---------777 777-------|--pick slide to-7-when needed--------------
pm..  ..  ..  ..  ..  ..  ..  ..


CHORUS:
Guitar 1 and 2 X2
e------------------------------------------------------------------------------
b------------------------------------------------------------------------------
g-99----6666-------------------------------------------------------------------
d-99-99-6666-66-77-66-77-------------------------------------------------------
a-77-99-4444-66-77-66-77-------------------------------------------------------
E----99------66-77-66-77-------------------------------------------------------


INTERLUDE:
Guitar 1
e------------------------------------------------------------------------------
b------------------------------------------------------------------------------
g------------------------------------------------------------------------------
d-22-x-22-xx-2-22-x-22-xx-7-22-x-22-xx-2-22-x-22-------------------------------
a-22-x-22-xx-2-22-x-22-xx-7-22-x-22-xx-2-22-x-22-------------------------------
E-22-x-22-xx-2-22-x-22-xx-7-22-x-22-xx-2-22-x-22-------------------------------


Guitar 1                           Guitar 2
e-----0-------0-------0----------|-0---0---0---0---0--------
b---0---0---0---0---0---0--------|---0---0---0---0---0------
g--------------------------------|--------------------------
d-2-------1------------------2---|--------------------------
a-----------------4--------0---0-|--------------------------
E--------------------------------|--------------------------

Guitar 1 and 2
e------------------------------------------------------------------------------------
b------------------------------------------------------------------------------------
g------------------------------------------------------------------------------------
d-0222-0227-0222-0227---------0222-0227-0222-02--02--0227-0222-0227---------00000000-
a-0222-0227-0222-0227--pause--0222-0227-0222-02--02--0227-0222-0227--pause--00000000-
E-0222-0227-0222-0227---------0222-0227-0222-02--02--0227-0222-0227---------00000000-
pm                                                                          .....


CHORUS:
Guitar 1 and 2 X2
e------------------------------------------------------------------------------
b------------------------------------------------------------------------------
g-99----6666-------------------------------------------------------------------
d-99-99-6666-66-77-66-77-------------------------------------------------------
a-77-99-4444-66-77-66-77-------------------------------------------------------
E----99------66-77-66-77-------------------------------------------------------


Guitar 1 X2                   Guitar 2 X2
e-------------------------------|----------------------------------
b-------------------------------|----------------------------------
g-------------------------------|----------------------------------
d--022-6-022-4-022-6-022-4-2----|--0222-0227-0222-0227-------------
a--022---022---022---022--------|--0222-0227-0222-0227-------------
E--022---022---022---022--------|--0222-0227-0222-0227-------------


Both Guitars
e-------------------------------------------------------------
b-------------------------------------------------------------
g-------------------------------------------------------------
d-22-22-------------------------------------------------------
a-22-22-------------------------------------------------------
E-22-22-------------------------------------------------------







		   
AcordesyTabs.com © 2008 Acordes y Tablaturas para guitarra. Tabs and Chords for guitar. Aviso Legal - Contacto
El uso de este sitio está sujeto a la aceptación de los términos y condiciones (72 usuarios online)