tablaturas, partituras y acordes para guitarra
Busca por banda/artista:
 
y/o título de la canción:
A B C D E F G H I J K L M N O P Q R S T U V W X Y Z 0 1 2 3 4 5 6 7 8 9 / Top 100 tabs
Categorías
Usuarios
usuario:
Darse de alta
password:
Artistas más visitados
Publicidad
TOP acordes y tablaturas de Feeder


Estás en: Inicio > Letra F > Acordes y tablaturas de Feeder > Come Back Around
Come Back Around
de Feeder
Puntúa este acorde/tab:      
(0.3/5)
Reportar este acorde/tab
  Añadir a tus favoritos
  Imprimir
FEEDER - COME BACK AROUND

Tabbed by Tom Stead

Hey people! This is such a great song by Feeder, and heres my tab for it. Happy 

INTRO AND VERSE

Play D5, C5 clean then cram on distortion for F5 and G5

E---------------------------
B---------------------------
G-7------5------------------    
D-7------5------3-----5-----
A-5(X14)-3(X14)-1(X8)-5(X8)-
E-5------3------1-----3-----


PRE-CHORUS

E--------------------
B--------------------
G-5-6-5-6-5-6-5-6----
D-----------------4-6
A--------------------
E--------------------

CHORUS

E---------------------------------------
B---------------------------------------
G-777/5555555-10101010------------------
D-777/5555555-10101010-33333333-55555555
A-555/3333333-8 8 8 8 -33333333-55555555
E-555/3333333-8 8 8 8 -11111111-33333333

INTERLUDE

E-------------------------------
B-------------------------------
G------------5-55555555-33333333
D-2-3-5-66-7-5 X2   then-55555555-33333333    X2
A-2-3-5-66-7-3-33333333-11111111
E-0-1-3-44-5-3-33333333-11111111


OUTRO - at end of the chorus play this

E----------
B----------
G----------
D-3333-5555
A-3333-5555
E-1111-3333


SONG ORDER

VERSE X3
PRE CHORUS X2
CHORUS X2
VERSE X3
PRE CHORUS X2
CHORUS X4
INTERLUDE X1
VERSE X3 - slightly different distortion is 
   played on all 4 chords 3rd time round
PRE CHORUS X2
CHORUS X4
OUTRO X2
		   
AcordesyTabs.com © 2008 Acordes y Tablaturas para guitarra. Tabs and Chords for guitar. Aviso Legal - Contacto
El uso de este sitio está sujeto a la aceptación de los términos y condiciones (35 usuarios online)