tablaturas, partituras y acordes para guitarra
Busca por banda/artista:
 
y/o título de la canción:
A B C D E F G H I J K L M N O P Q R S T U V W X Y Z 0 1 2 3 4 5 6 7 8 9 / Top 100 tabs
Categorías
Usuarios
usuario:
Darse de alta
password:
Artistas más visitados
Publicidad
TOP acordes y tablaturas de Cristian Castro


Estás en: Inicio > Letra C > Acordes y tablaturas de Cristian Castro > Lluvia de estrellas
Lluvia de estrellas
de Cristian Castro
Puntúa este acorde/tab:      
(0.8/5)
Reportar este acorde/tab
  Añadir a tus favoritos
  Imprimir
[* CEJILLA EN EL SEGUNDO TRASTE *]

G7b: 300032
  A: 002220
  D: 000232
 Bm: 224432
  G: 320003
F#m: 244222


[* INTRO *]
        G7b           A           D               
E-||--------------------------------------------5-----------------
B-||----7-7-7-7-7-7-5--7--8--5---5/7--7-7-7-7-7---8-7-5---5-7-8---
G-||----------------------------------------------------7---------
D-||----7-7-7-7-7-7-7--7--7--7---7-7--7-7-7-7-7-7-7-7-7-7-7-7-7---
A-||--------------------------------------------------------------
E-||--------------------------------------------------------------

        G7b           A           D                A  
E-||--------------------------------------------------------------
B-||----7-7-7-7-7-7-5--7--8--5---5/7--7-7-7-7-7--5--7--8--5-------
G-||--------------------------------------------------------------
D-||----7-7-7-7-7-7-7--7--7--7---7-7--7-7-7-7-7--7--7--7--7-------
A-||--------------------------------------------------------------
E-||--------------------------------------------------------------

        G7b            A          D
E-||-------------------------------------
B-||----5/7--7-7-7-7-7--5--7--8--7-5-----
G-||---------------------------------7---
D-||----7-7--7-7-7-7-7--7--7--7--7-7-7---
A-||-------------------------------------
E-||-------------------------------------



    D                A                     Bm
Perdona si hago de cuenta que no te he perdido
              A                      G
Me duele aceptar que ya no estás conmigo
              F#m            G              
Y no puedo dejar de pensar sólo en ti

    D                  A                   Bm
No se si algún día sabrás que te llevo conmigo
             A                G
La vida no tiene razón ni sentido
              F#m               A              
Y me puedo morir si no estás junto a mi


F#m    Bm           G 
Tengo tanta sed de ti (tengo tanta sed)
         A          F#m
Que me cuesta respirar (tanta sed de ti)
     Bm             G                  A
O será que en mi delirio te amo más y más


           G        A                   D A Bm 
Están lloviendo estrellas en nuestra habitación
 A         G                A             D      
Mojan de llanto (mojan de llanto) mi corazón
           G        A            D   A  Bm 
Están lloviendo estrellas alrededor de mi
 A       G               A                  D      
Y me preguntan (y me preguntan) que fue de ti 
               Bm    G             A
(que fue) Que fue de ti (de ti)


     D                 A                     Bm
Quisiera llevarte muy dentro y llegado el momento
              A                  G
Entrar en el fondo de tus sentimientos
             F#m         A              
Y ver si te pasa lo mismo que a mi

     D                    A                 Bm
Si acaso al estar junto a él le dijeras mi nombre
                   A                 G
Y estando en sus brazos mis besos escondes
               F#m              A              
Recuerdas las noches de amor que te di



F#m    Bm           G 
Tengo tanta sed de ti (tengo tanta sed)
         A          F#m
Que me cuesta respirar (tanta sed de ti)
     Bm             G                  A
O será que en mi delirio te amo más y más


           G        A                   D A Bm 
Están lloviendo estrellas en nuestra habitación
 A         G                A             D      
Mojan de llanto (mojan de llanto) mi corazón
           G        A            D   A  Bm 
Están lloviendo estrellas alrededor de mi
 A       G               A                  D      
Y me preguntan (y me preguntan) que fue de ti 
         
(que fue de ti)
             G        A                   D A Bm 
Y están lloviendo estrellas en nuestra habitación
 A         G                A             D      
Mojan de llanto (mojan de llanto) mi corazón
           G        A            D   A  Bm 
Están lloviendo estrellas alrededor de mi
 A       G               A                  D      
Y me preguntan (y me preguntan) que fue de ti 
       A       Bm    A     G             A
(que fue) Que fue      de ti (de ti)
              D A Bm A G    A
Que fue de ti


[* SOLO DE GAITA -REPETIR- *]

       D           A           Bm            A             G           A                  
E-||----------------------------------------------10-9-10-----------------------------
B-||---10-10-10-10-10-10-----7-8-10-10-10-10-10-----------10-------8-7-8-7------7-8---
G-||-----------------------------------------------------------------------9----------
D-||----------------------------------------------------------------------------------
A-||----------------------------------------------------------------------------------
E-||----------------------------------------------------------------------------------


[* REPETIR SÓLO LOS COROS Y FUNDIR *]



### Tablatura de: Enrique Moraño ###
### Sevilla (España) para ATAME  ###
###     emorano@hotmail.com      ###
		   
AcordesyTabs.com © 2008 Acordes y Tablaturas para guitarra. Tabs and Chords for guitar. Aviso Legal - Contacto
El uso de este sitio está sujeto a la aceptación de los términos y condiciones (16 usuarios online)