tablaturas, partituras y acordes para guitarra
Busca por banda/artista:
 
y/o título de la canción:
A B C D E F G H I J K L M N O P Q R S T U V W X Y Z 0 1 2 3 4 5 6 7 8 9 / Top 100 tabs
Categorías
Usuarios
usuario:
Darse de alta
password:
Artistas más visitados
Publicidad
TOP acordes y tablaturas de Attaque 77


Estás en: Inicio > Letra A > Acordes y tablaturas de Attaque 77 > Hacelo por mí
Hacelo por mí
de Attaque 77
Puntúa este acorde/tab:      
(0.7/5)
Reportar este acorde/tab
  Añadir a tus favoritos
  Imprimir
A VER SI LA GENTE DE ATAME SE PONE LAS PILAS Y PUBLICAN LAS
COLABORACIONES POR QUE ES LA SEGUNDA IGUAL QUE MANDO Y NUNCA
LA PUBLICARON.
QUE HALLA MUCHAS NO SIGNIFICA QUE ESTEN BIEN SACADAS.

[Intro] 

[E C#m]x2 [F#m B] [B A]
Entra rasgueando en E y después mete este punteo...
  E        Cm#
e|--------------------------------------------0---|
B|--------------------------------------------0---|
G|--------------------------------------------1---| x2
D|--------------------------------------------2---|
A|-------2-4--7-7-6-6-4-4--7-7-6-6-4----4p2---2---|
E|-0h2h4--------------------------------------0---|


      E                   
Yo no sé lo que sentí 
     C#m  
esa tarde que te vi 
       A 
yo pensaba en otras cosas, 
        B  
fuiste mucho para mí. 
  
      E                   
Yo creía en tus palabras,  
      C#m  
tu mirada me engañó 
      A 
Ahora sé que no sos mía,  
        B  
la culpa la tuve yo. 
  
      A 
Yo no quise lastimarte,  
      C#m  
jamás tuve esa intención 
        A 
Fuimos presos de un impulso,  
    F#           B
yo solo buscaba amor. 

[Intro]

          E                   
Y cuando te veía en la calle,  
     C#m  
no podía evitar  
          A 
que el silencio se adueñara,  
      B  
me quedaba sin hablar. 
  
      E                   
Ahora sé que no sos mía,  
      C#m  
la culpa la tuve yo. 
       A 
Si querés podes marcharte,  
      B  
solo te pido un favor. 
  
     A 
Si aun te queda algo de amor 
      C#m  
dentro de tu corazón 
     A 
no me mires a los ojos 
    F#m           A             B 
que me muero, yo me muero de dolor 
Hacelo por mi. 

Aca hay un arreglo que es algo así: EL intro común

  E        Cm#
e|--------------------------------------------0---|
B|--------------------------------------------0---|
G|--------------------------------------------1---| x2
D|--------------------------------------------2---|
A|-------2-4--7-7-6-6-4-4--7-7-6-6-4----4p2---2---|
E|-0h2h4--------------------------------------0---|
Y después:
  F#m           B            A               B
e|--------------------------------------------------------------|
B|----------------------------10---10---10---11h12p11h12p11h12--|
G|---------------------------9--9-9--9-9------------------------|
D|1--1-1--1-3-4-3--3/9/7----------------------------------------|
A|--------------------------------------------------------------|
E|--------------------------------------------------------------|


       E                    
Todo eso que sentía  
      C#m  
esa tarde que te vi 
       A 
ahora no tiene sentido,  
          B  
fue un mal sueño para mí. 
  
       E                   
Y al pensar en tu mirada,  
      C#m  
ya no puedo sonreír 
       A 
si querés podes marcharte,  
       B  
solo te quiero decir. 
  
     A 
Si aun te queda algo de amor 
      C#m  
dentro de tu corazón [A|-4-5--7-] cuando termina 'corazón' mete esto.
       A                          
no me mires a los ojos 
       F#m           A            B
que me muero, yo me muero de dolor. 
Hacelo por mí. 

[Intro]
[Solo del final]
e|---------------------------------------------------|
B|-----9--7~-9----9--7~----------5--4~-5------5--4~-5|
G|-9-9----------9--------9>>>6-6----------6-6--------|
D|---------------------------------------------------| x2
A|---------------------------------------------------|
E|---------------------------------------------------|


Aguante pogo que precariamente va creciendo.
Cualquier cosa escriban al mail => davidtoscano41@hotmail.com
Aguante attaque nena.....
		   
AcordesyTabs.com © 2008 Acordes y Tablaturas para guitarra. Tabs and Chords for guitar. Aviso Legal - Contacto
El uso de este sitio está sujeto a la aceptación de los términos y condiciones (19 usuarios online)