tablaturas, partituras y acordes para guitarra
Busca por banda/artista:
 
y/o título de la canción:
A B C D E F G H I J K L M N O P Q R S T U V W X Y Z 0 1 2 3 4 5 6 7 8 9 / Top 100 tabs
Categorías
Usuarios
usuario:
Darse de alta
password:
Artistas más visitados
Publicidad
TOP acordes y tablaturas de Alejandra Guzmán


Loca
de Alejandra Guzmán
Puntúa este acorde/tab:      
(0.4/5)
Reportar este acorde/tab
  Añadir a tus favoritos
  Imprimir
La afinacion de la guitarra es normal (E A D G B E)
Empezamos!!!

  Solo les voy a poner los arreglos que hace la guitarra (y es todo 
  con lo que participa la guitarra, a ustedes les toca saber donde van
 los arrelgos...)
Q=78
 4/4

  H    E E +E  E   Q  Q  S S S S S S S S   S S S S S S E +Q   S S S S
|--------5-(5)-5-|-5-------5---5-5-5---5-|-5--------------------------|
|----------------|-----------------------|---5---5-5---3-(3)--------3-|
|----------------|-----------------------|------------------------5---|
|----------------|-----------------------|----------------------5-----|
|----------------|-----------------------|----------------------------|
|----------------|-----------------------|----------------------------|


  E S S Q  +E  S S E. S   S S E +Q   +S  S S S S S E   W
|-----------------------|----------------------------|------|
|-----------------------|----------------------------|------|
|-5-4-5-4--(4)----------|----------------------------|------|
|--------------5-3-2--3-|-2-3-2-(2)--(2)-0-----------|------|
|-----------------------|------------------3-2-3-2-0-|------|
|-----------------------|----------------------------|------|

  W          W          H    Q   S S S S
|----------|----------|---------10-7-8-7-|
|----------|----------|---------13-------|
|----------|----------|------------------|
|----------|----------|------------------|
|----------|----------|------------------|
|----------|----------|------------------|


  S S  S S  E E S  S E E S  S    +S   E S S S E +Q   Q
|-7-8-------------------------|-------------------------|
|-----10---10---8-10----------|-------------------------|
|--------------------9-9---10-|-(10)-10-9-9-7-9-(9)-----|
|-----------------------------|-------------------------|
|-----------------------------|-------------------------|
|-----------------------------|-------------------------|

Segundo arreglo:

  S  S S  S  S E S S S S S E S S
|---10---10-10-7-----1-0---0------|
|------------------------3---3-1--|
|----------------7-9--------------|
|---------------------------------|
|---------------------------------|
|---------------------------------|


  E S S E S S H      +E  E S E S Q  Q     E.  S  +S   S  S S Q  S  E  S
|------------------|-------5-7-8-7--5--|-12--12-(12)-10-10--------10-12-|
|-3-1-0-1-0--------|-------------------|--------------------------------|
|-----------0-2----|-(2)---------------|--------------------------------|
|------------------|-------------------|--------------------------------|
|------------------|-------------------|--------------------------------|
|------------------|-------------------|--------------------------------|


   S  E  S  S  E S E S S S E S   S S E E S S Q  E S S   S S E +Q   +E  E Q
|-13-12-10-12-10---7-8-7-8-7-5-|-5-----8-7-8-7--5-7-3-|-5-8-5-(5)--(5)-------*|
|------------------------------|----------------------|----------------------*|
|------------------------------|----------------------|----------------------*|
|------------------------------|----------------------|----------------------*|
|------------------------------|----------------------|----------------------*|
|------------------------------|----------------------|----------------------*|

FIN!!!
- BUENO AQUI ABAJO ESTA EL SIGNIFICADO DE LAS LETRAS Y LOS SIGNOS...
- ESPERO QUE LES HAYA AGRADADO Y SOBRETODO QUE LE HAYAN ENTENDIDO...
- POR SI ALGUNA RAZON NO LE ENTIENDEN PUES HECHENME UN MAIL A: sNaKePiTs@guitar.com
- SI QUIEREN ALGUNA PETICION PUES TAMBIEN HECHENME UN MAIL...
- ESTA CANCION Y OTRAS LAS TENGO EN ARCHIVOS POWERTAB, POR SI ALGUIEN LA QUIERE...
  PUES HECHENME UN MAIL PIDIENDOLAS...
- LOS VERE EN LA PROXIMA CANCION!!!...


NOTA!!!: PUEDEN UTILIZAR ESTA TAB PARA PUBLICARLA DONDE USTEDES
QUIERAN, PERO POR FAVOR LES RUEGO QUE ME DEN LOS CREDITOS COMO
TRANSCRIPTOR DE LA MISMA...GRACIAS!!!

NESTOR SADAO ARECHIGA CERVANTES (sNaKePiTs@guitar.com)


LEYENDA DE LAS NOTAS:

W = (REDONDA)     NOTA COMPLETA
H = (BLANCA)      MEDIA NOTA
Q = (NEGRA)       CUARTO DE NOTA
E = (CORCHEA)     OCTAVO DE NOTA
S = (SEMICORCHEA) DIECISEISAVA DE NOTA
T = (FUSA)        TREINTAIDOSAVA DE NOTA
X = (SEMIFUSA)    SESENTAICUATROAVA DE NOTA

a  =  ACCIACCATURA
+  =  LIGADURA
.  =  AUMENTA LA DURACION DE LA NOTA
.. =  AUMENTA LA DOBLE DE LA DURACION DE LA NOTA


LEYENDA DEL 'PENTAGRAMA'
 |  - COMPAS
||  - DOBLE COMPAS
||o - ES DONDE VA A COMENZAR CUANDO ALGO SE VA A REPETIR
o|| - ES DONDE VA A TERMINAR CUANDO ALGO SE VA A REPETIR
*|  - FIN DE LA CANCION
 :  - COMPAS LIBRE
 $  - SEGNO (AL VER ESTE SIGNO, TENEMOS QUE RETROCEDER HASTA VER EL SIGNO ANTERIOR $...)
 &  - CODA (SIGNIFICA QUE DEBES PASAR LA SIGUIENTE SIGNO &)
		   
AcordesyTabs.com © 2008 Acordes y Tablaturas para guitarra. Tabs and Chords for guitar. Aviso Legal - Contacto
El uso de este sitio está sujeto a la aceptación de los términos y condiciones (20 usuarios online)