tablaturas, partituras y acordes para guitarra
Busca por banda/artista:
 
y/o título de la canción:
A B C D E F G H I J K L M N O P Q R S T U V W X Y Z 0 1 2 3 4 5 6 7 8 9 / Top 100 tabs
Categorías
Usuarios
usuario:
Darse de alta
password:
Artistas más visitados
Publicidad
TOP acordes y tablaturas de Alejandro Fernandez


Loco
de Alejandro Fernandez
Puntúa este acorde/tab:      
(0.3/5)
Reportar este acorde/tab
  Añadir a tus favoritos
  Imprimir
  Quisiera dedicar esta cancion a Karina. 

        A               D
 e-0-0-9-9-7-7-5-5----------------------
 B-----------------9-9-7-7--------------
 G--------------------------------------
 D--------------------------------------
 A--------------------------------------
 E--------------------------------------

          Bm               E
 e-0-0-10-10-9-9-7-7-5-5----------------
 B------------------------9-9-----------
 G--------------------------------------
 D--------------------------------------
 A--------------------------------------
 E--------------------------------------

                                  A
 e-----4-6-------0-0-12-12-10-10-9-9----
 B-5-7----------------------------------
 G--------------------------------------
 D--------------------------------------
 A--------------------------------------
 E--------------------------------------

         F#m      Bm            E   A
 e--0-0-10-10-9-9-7-7--0-0-9-9-7-7-5-5--
 B--------------------------------------
 G--------------------------------------
 D--------------------------------------
 A--------------------------------------
 E--------------------------------------


             A
 e--7-0-2-4-----------------------------
 B--------------------------------------
 G--------------------------------------
 D--------------------------------------
 A--------------------------------------
 E--------------------------------------
		   
AcordesyTabs.com © 2008 Acordes y Tablaturas para guitarra. Tabs and Chords for guitar. Aviso Legal - Contacto
El uso de este sitio está sujeto a la aceptación de los términos y condiciones (72 usuarios online)