tablaturas, partituras y acordes para guitarra
Busca por banda/artista:
 
y/o título de la canción:
A B C D E F G H I J K L M N O P Q R S T U V W X Y Z 0 1 2 3 4 5 6 7 8 9 / Top 100 tabs
Categorías
Usuarios
usuario:
Darse de alta
password:
Artistas más visitados
Publicidad
TOP acordes y tablaturas de Chancho en Piedra


Locura Espacial
de Chancho en Piedra
Puntúa este acorde/tab:      
(0.3/5)
Reportar este acorde/tab
  Añadir a tus favoritos
  Imprimir
Intro
|-----------------------------|
|-----------------------------|
|-----------------------------|
|-----------------------------|
|-----------------------------|
|-0-2-0-2-5-2-0-2-0-2-0-5-2-0-|

Verso
|------------------------7-6---------------|
|--------------------5-7-------------------|**= Ahi teni que tocar el clavijero
|------------------------------------------|
|------------------------------------------|
|-------------------------------------0h2--|
|-0-2-0-2-**-0-2-0-2---------0-2-0-2------3|


Coro

|-----------------------------|
|-----------------------------|
|-----------------------------|
|-----------------------------|
|-----------------------------|
|-0-2-0-2-5-2-0-2-0-2-0-5-2-0-|

Variacion

|-----------|
|-----------|
|-----------|
|-----------|
|---------2-|
|-0-2-0-5---|

Donde y cuando debe comprar..

|---------|
|---------|
|-----4-3-|
|-4-3-4-3-|
|-4-3-2-1-|
|-2-1-----|

Parte ultra chacra (donde queda la caga en las tocatas)

|-----------------|
|-----------------|
|---3-2---6-7-6---|
|-4-3-2-4-6-7-6-5-|
|-4-1-0-4-4-5-4-5-|
|-2-----2-------3-|

Solo



Final

|-----------------|
|-----------------|
|---3-2---6-7-6---|
|-4-3-2-4-6-7-6-5-|
|-4-1-0-4-4-5-4-5-|
|-2-----2-------3-|

|------------------|
|------------------|
|---6-5---9-10-9---|
|-7-6-5-7-9-10-9-8-|
|-7-4-3-7-7-8--7-8-|
|-5-----5--------6-|
		   
AcordesyTabs.com © 2008 Acordes y Tablaturas para guitarra. Tabs and Chords for guitar. Aviso Legal - Contacto
El uso de este sitio está sujeto a la aceptación de los términos y condiciones (22 usuarios online)