tablaturas, partituras y acordes para guitarra
Busca por banda/artista:
 
y/o título de la canción:
A B C D E F G H I J K L M N O P Q R S T U V W X Y Z 0 1 2 3 4 5 6 7 8 9 / Top 100 tabs
Categorías
Usuarios
usuario:
Darse de alta
password:
Artistas más visitados
Publicidad
TOP acordes y tablaturas de Alejandro Sanz


Estás en: Inicio > Letra A > Acordes y tablaturas de Alejandro Sanz > Lo diré bajito
Lo diré bajito
de Alejandro Sanz
Puntúa este acorde/tab:      
(0.6/5)
Reportar este acorde/tab
  Añadir a tus favoritos
  Imprimir
Title: Lo dire bajito (versión Grammy)
Artist: Alejandro Sanz
Album: No es lo mismo

Instrument: 6 String Guitar

Tabbed by: Santiago Sánchez / Johnny Lopéz
           (santy_s_ec@hotmail.com)

Tuning: Standard ( E A D G B E)

EXPLICACION:

La cancion es muy fácil de tocarla solo lee detenidamente la 
tablatura y escucha el ritmo, en las partes de los coros los 
rasgados son pausados,los acordes que se encuentran en los 
parentesis se los toca seguidos de manera fluida. 
Att. Chelinsky  (QUIERO DEDICAR ESTA CANCION A UNA PERSONA 
MUY ESPECIAL..! GRACIAS POR ESTAR CONMIGO EN EL CONCIERTO DE 
ALEJANDRO 19/02/04:)

     Johnnyche  Buena surte...!!!!!!!! 


Intro

Fadim  fam#*

              Fadim                fam#6          
Si yo no te merezco no me hagas destino

             Si7/Do             dom# 
si no te acompaño no me hagas camino

      Soldim   sim7     fadim(Arreglado)   
no lo hagas al menos conmigo


               Sib7/Si                   fam#6           
Si tengo mi universo y es por que lo necesito

            Si7/Do               dom#            
todos somos heroes en busca de auxilio

     Soldim   sim7                 fadim(Arreglado)
de espacios heridos, no lo hagas conmigo

CORO1

Sol                             (fam#-fam#9-fam#6-fam#9)  
Y se va se va, se va con el vai ven

Reb7*                        (Reb7/Re-Re)   
se que a ti te daba igual perder

Mi                  Fadim  
pero a mi no a mino me da igual

          fam#
yo miro alrededor 

             Re               Mi     
por que no heche de menos los mares de ilusión 

              dom#                     La7
por que no te ha extrañado que no haya huracanes

           Re            re         (dom#-Soldim#) fam#  
de pasión, mirate mirate mirate mirate hi hiiiii

                 Fadim(Arreglado)
Que has hecho contigo...?


               Fadim                     fam#6
Estas como la luna de la noche siempre esclava

                Si7/Do                 dom# 
yo no queria perderme ni una sola madrugada

   Soldim   sim7                  fadim(Arreglado)
al menos contigo , no lo haras conmigo

CORO2

Sol                              
Y nos vamos tu y yo tu y yo 

     (fam#-fam#9-fam#6-fam#9)   Reb7*                       (Reb7/Re-Re)
a perder                   se que a ti te daba igual querer
                        
     Mi           Fadim                     fam#
Pero a mi no, a mi no me da igual yo miro alrededor

             Re               Mi 
por que no heche de menos los mares de ilusión 

             dom#                      La7
por que no te ha extrañado que no haya huracanes

           Re            re     (dom#-Soldim#)   fam#  
de pasión, mirate mirate mirate mirate hi hiiiii

                 Fadim(Arreglado)  fam#
Que has hecho contigo...?

ARPEGIOS:

Intro

  Fadim  fam#* 


E|--4--|--5--||
B|--3--|--7--||
G|--4--|--6--||
D|--3--|--4--||
A|--x--|--x--||
E|--x--|--x--||


   Fadim         fam#6          Si7/Do        dom# 

E|-------4-----|-------5------|-------------|-------------||
B|---3-----3---|---2-----2----|-------4-----|-------5-----||
G|-----4-----4-|-----2-----2--|---2-----2---|---6-----6---||
D|-3-----------|-4------------|-----4-----4-|-----6-----6-||
A|-------------|--------------|-3-----------|-4-----------||
E|-------------|--------------|-------------|-------------||


   Soldim        sim7          fadim(Arreglado)    Sib7/Si

E|-------6-----|-------5-----|-------5-----4-----|--x--x--||
B|---5-----5---|---3-----3---|---3-----3-----3---|--3--3--||
G|-----6-----6-|-----4-----4-|-----4-----4-----4-|--1--1--||
D|-5-----------|-2-----------|-3-----------------|--3--3--||
A|-------------|-------------|-------------------|--2--2--||
E|-------------|-------------|-------------------|--x--x--||

 

   fam#6          Si7/Do        dom# 

E|-------5------|-------------|-------------||
B|---2-----2----|-------4-----|-------5-----||
G|-----2-----2--|---2-----2---|---6-----6---||
D|-4------------|-----4-----4-|-----6-----6-||
A|--------------|-3-----------|-4-----------||
E|--------------|-------------|-------------||


   Soldim         sim7           fadim (Arreglado)

E|-------6-----|-------5-----|-------5-----4-----||
B|---5-----5---|---3-----3---|---3-----3-----3---||
G|-----6-----6-|-----4-----4-|-----4-----4-----4-||
D|-5-----------|-2-----------|-3-----------------||
A|-------------|-------------|-------------------||
E|-------------|-------------|-------------------||
 
COROS

   Sol         (fam#-fam#9-fam#6-fam#9)  Reb7*

E|-3--3--3--3-|-2-----4-----5-----4-----|-4-----5-----4-----4-|
B|-3--3--3--3-|-----2---2-----2-----2---|---6-----6-----6-----|
G|-0--0--0--0-|---2-------2-----2-----2-|-----4-----4-----4---|
D|-0--0--0--0-|-4-----------4-----4-----|---------------------|
A|-2--2--2--2-|-------------------------|-4-----------4-------|
E|-3--3--3--3-|-------------------------|---------------------|


  (Reb7/Re-Re)   Mi   Fadim  fam#

E|---------2---|-0-0-|-4-4-|-2-2-||
B|---6-------3-|-0-0-|-3-3-|-2-2-||
G|-----4-------|-1-1-|-4-4-|-2-2-||
D|-------0-----|-2-2-|-3-3-|-4-4-||
A|-5-----------|-2-2-|-x-x-|-4-4-||
E|-------------|-0-0-|-x-x-|-2-2-||


   Re    Mi    dom#  La7

E|-2-2-|-0-0-|-4-4-|-0-||
B|-3-3-|-0-0-|-5-5-|-2-||
G|-2-2-|-3-3-|-6-6-|-0-||
D|-0-0-|-2-2-|-6-6-|-2-||
A|-x-x-|-2-2-|-4-4-|-0-||
E|-x-x-|-0-0-|-x-x-|-x-||


   Re            re            (dom#-Soldim#) fam#     

E|-2-----2-----|-1-----1-----|-4------7-----|-2-----2-||
B|---3-----3---|---3-----3---|---5------6---|---2-----||
G|-----2-----2-|-----2-----2-|-----6------7-|-----2---||
D|-0-----------|-0-----------|--------6-----|-4-------||
A|-------------|-------------|-4------------|---------||
E|-------------|-------------|--------------|---------||


   Fadim(Arreglado)

E|-------5-----4-----||
B|---3-----3-----3---||
G|-----4-----4-----4-||
D|-3-----------------||
A|-------------------||
E|-------------------||


ACORDES COMPLEJOS


  Fadim fam#6 Si7/Do dom# Soldim sim7 Sib7/Si fam#9 Reb7* Reb7/Re
E|--4--|--5--|--x--|--4--|--6--|--5--|--x---|--4---|--5--|---4---|
B|--3--|--2--|--4--|--5--|--5--|--3--|--3---|--2---|--6--|---6---|
G|--4--|--2--|--2--|--6--|--6--|--4--|--1---|--2---|--4--|---4---|
D|--3--|--4--|--4--|--6--|--5--|--x--|--3---|--4---|--6--|---6---|
A|--x--|--x--|--3--|--4--|--x--|--2--|--2---|--x---|--4--|---5---|
E|--x--|--x--|--x--|--x--|--x--|--x--|--x---|--x---|--x--|---x---|
		   
AcordesyTabs.com © 2008 Acordes y Tablaturas para guitarra. Tabs and Chords for guitar. Aviso Legal - Contacto
El uso de este sitio está sujeto a la aceptación de los términos y condiciones (20 usuarios online)