tablaturas, partituras y acordes para guitarra
Busca por banda/artista:
 
y/o título de la canción:
A B C D E F G H I J K L M N O P Q R S T U V W X Y Z 0 1 2 3 4 5 6 7 8 9 / Top 100 tabs
Categorías
Usuarios
usuario:
Darse de alta
password:
Artistas más visitados
Publicidad
TOP acordes y tablaturas de Mago De Oz


Estás en: Inicio > Letra M > Acordes y tablaturas de Mago De Oz > Hasta que el cuerpo aguante
Hasta que el cuerpo aguante
de Mago De Oz
Puntúa este acorde/tab:      
(0.6/5)
Reportar este acorde/tab
  Añadir a tus favoritos
  Imprimir
Mägo de Oz - Hasta que el cuerpo aguante. 

e|------------------5--------------------------------------------------------|
B|---5---5--7--8-------8--7--5--3--------------------------------------------|
G|---------------------------------------------------------------------------|
D|---------------------------------------------------------------------------|
A|---------------------------------------------------------------------------|
E|---------------------------------------------------------------------------|

e|------------------5--------------------------------------------------------|
B|---5---5--7--8--------7^--5------------------------------------------------|
G|---------------------------------------------------------------------------|
D|---------------------------------------------------------------------------|
A|---------------------------------------------------------------------------|
E|---------------------------------------------------------------------------|

e|----------------5--3--5--7----8--7--5-----5--------------------------------|
B|---5---5--7--8-------------------------8-----8--7--5--3--5--5--------------|
G|---------------------------------------------------------------------------|
D|---------------------------------------------------------------------------|
A|---------------------------------------------------------------------------|
E|---------------------------------------------------------------------------|

Acordes:

Intro: Bm   A 

Bm
Puedes arrancarme el corazon del pecho
A
y convertir el murmullo tenue en mi voz
Bm                               A
reducir toda una vida solo a un renglon


Bm
Puedes sobre mi dar opinion siesgada
A
criticar mi oficio que no es porvenir
Bm                                A
que alimento la hoguera de la imaginacion


Bm
Puede que la lluvia caiga sobre el cielo
A
que el mar confundido vaya a un rio a morir
Bm                                            
que en la noche cante el gallo y la mañana 
A                              Bm
que con las animas se fuera a divertir


Bm                               
Vivo con la pasion a flor de piel
D
entre estrofas encontraras mi hogar
A                   Bm
ella espera a que regrese
Em                     A
y mientras yo guardo sus besos y su voz
                 
en mi corazon

Bm
Busco en el camino todas las respuestas
A
y me he dado cuenta que estan en mi
Bm                      A
comunicador de sueños quiero ser

Bm
Musico soy, musico sere
A
ponte un par de sensaciones a tu piel
Bm                                        A
fabrico recuerdos que atas con nostalgia a mi cancion


Bm
Jamas podre dejarla
D
mi vida es una cancion
A               Bm
soy escultor del alma
Em                       A
soy musico y amo en clave de sol
hasta que aguante mi voz...



Acordes de intro con la variante de      D   A


Bm
Estamos locos de atar
A
somos trobadores que en tu ciudad
Bm
damos pinceladas de color
A
a tu gris realidad

Bm
Somos mitad caballeros
A
mitad bohemios y embusteros
Bm
no somos lo que un padre quiere
A 
para su hijita bebe


Bm
Estamos locos de atar
A
somos trobadores que en tu ciudad
Bm
damos pinceladas de color
A
a tu gris realidad

Bm
Somos mitad caballeros
A
mitad bohemios y embusteros
Bm
no somos lo que un padre quiere
A 
para su hijita bebe

Bm
Hasta que el cuerpo aguante
A
hasta que quiera mi voz
Bm
hasta que el cuerpo aguante
A
seguire viviendo tal como soy   (2 veces)

Dedicada a mis amigos de 3°PAI A y B, y en especial a la 
señorita frío, y a la novia que algún día tendré.
		   
AcordesyTabs.com © 2008 Acordes y Tablaturas para guitarra. Tabs and Chords for guitar. Aviso Legal - Contacto
El uso de este sitio está sujeto a la aceptación de los términos y condiciones (17 usuarios online)