tablaturas, partituras y acordes para guitarra
Busca por banda/artista:
 
y/o título de la canción:
A B C D E F G H I J K L M N O P Q R S T U V W X Y Z 0 1 2 3 4 5 6 7 8 9 / Top 100 tabs
Categorías
Usuarios
usuario:
Darse de alta
password:
Artistas más visitados
Publicidad
TOP acordes y tablaturas de Rojo


Estás en: Inicio > Letra R > Acordes y tablaturas de Rojo > Hasta que no respire mas
Hasta que no respire mas
de Rojo
Puntúa este acorde/tab:      
(0.6/5)
Reportar este acorde/tab
  Añadir a tus favoritos
  Imprimir
Este es el solo de guitarra version en vivo
que reemplaza al solo de violin.Me parecio
interesante por eso decidi sacarlo,suena
exelente para que puedan tocar toda la cancion.

ahi les va...

E--------------------|----------------------------------
B--------------------|---------------13h12-13v------------------
G--------------------|------------12----------------------
D-7-9-10-9-7H9-7-9/7v|-9/10-11-11-------------------------------------------
A--------------------|----------------------------------
E--------------------|----------------------------------

E---------------------------------|---------------------
B---------------------------------|---------10-12-13----------
G---------------------------------|-9h11-12-------------------
D-(12)12/14v-10h12-9-7h9-7-7-4/5v-|----------------------------------------------
A---------------------------------|---------------------
E---------------------------------|---------------------

E--------------|----10/1212------------------------------------
B-12-10h12-10v-|-12---------13(10)12-(10)12(10)----------------------------
G--------------|---------------14-----14----14------------
D--------------|----------------------------------------
A--------------|----------------------------------------
E--------------|----------------------------------------

E---------------------------------|-------------------|
B----12/1313V-13---12V-----12-----|-------------------|
G-14-------------14-----14----14V-|-141211H12po11-----|
D---------------------------------|---------------14v-|
A---------------------------------|-------------------|
E---------------------------------|-------------------|

E----------------------|------------------------------|
B----------------------|------------------------------|
G--------------111214v-|--141211----------------------|
D-1414--121212---------|---------141210---------------|
A----------------------|----------------1210v/3-------|
E----------------------|------------------------------

h=martillar
/=deslizar
()=nota opcional depende del musico que la ejecute
po=tirar la cuerda.

Ahi tienen!!espero que les guste y puedan tocar la cancion.
el punteo lo saque de un video de rojo en vivo que dieron
en el canal vidavision.Un saludo a la iglesia cristiana
de chile(lircay 232)y a todos los musicos de ella,en especial
a su lider David Ahumada.

  QUE DIOS LOS BENDIGA.....
		   
AcordesyTabs.com © 2008 Acordes y Tablaturas para guitarra. Tabs and Chords for guitar. Aviso Legal - Contacto
El uso de este sitio está sujeto a la aceptación de los términos y condiciones (24 usuarios online)