tablaturas, partituras y acordes para guitarra
Busca por banda/artista:
 
y/o título de la canción:
A B C D E F G H I J K L M N O P Q R S T U V W X Y Z 0 1 2 3 4 5 6 7 8 9 / Top 100 tabs
Categorías
Usuarios
usuario:
Darse de alta
password:
Artistas más visitados
Publicidad
TOP acordes y tablaturas de Menudo


Estás en: Inicio > Letra M > Acordes y tablaturas de Menudo > Lo que juramos
Lo que juramos
de Menudo
Puntúa este acorde/tab:      
(0.9/5)
Reportar este acorde/tab
  Añadir a tus favoritos
  Imprimir
Intro (FA DO Rem LA A# DO FA)

e|-----1-1/0----------0-1-----0-—9/10-8-6-5-3-0-1..---------0/1---------|  
B|----1------2------3-----2-3---------------------------1-3-----3-1-3..-|
G|---2---------0.-------------------------------------2-----------------|  
D|-----------------0----------------------------------------------------|
A|----------------------------------------------------------------------|
E|-1--------------------------------------------------------------------|

Rem	         LA	    Rem	      (Riff 1)    FA	       DO    FA	(Riff 2)
  Cuánto tiempo ya ha pasado,          cuántos sueños olvidados
Sib	         FA	    Solm	Do
   ya no quieres recordar lo que juramos.
FA	         DO    FA       Sib	     FA	Solm
   Cuántos besos se quedaron, para mí en tus bellos labios
FA	DO
no me los has dado.

Coro
      FA		DO	Rem
Vivo soñando contigo, mi amor
DO	FA	DO	Rem
Sigo llorando si escucho tu nombre
DO	FA	DO	Rem
Vivo esperando que vuelvas conmigo
LA 	Sib   DO		FA
Y que recuerdes: era para siempre.

Solo 1	(FA – DO – Rem – LA – Sib – DO – FA)
e|-8-6-5-6.-6-5-3-5.-5-3-------5-3--------------------------|  
B|-----------------------6-5-------6-5-6.--3-5-6-5-6-5-6..--|
G|---------------------------5------------------------------|  
D|----------------------------------------------------------|
A|----------------------------------------------------------|
E|----------------------------------------------------------|

FA	DO	FA	   (Riff 3)
Ahora nada es como antes
Sib	FA	Solm
aunque digan que me va a pasar
FA	DO	(Riff 4)
que me levante.
FA	DO	FA
Y que siga mi camino solo
Sib	FA	Solm	FA	DO
pero luego miro tu rostro y olvido todo.

Vivo soñando contigo, mi amor
sigo llorando si escucho tu nombre
vivo esperando que vuelvas conmigo
y que recuerdes...

Vivo soñando contigo, mi amor
sigo llorando si escucho tu nombre
vivo esperando que vuelvas conmigo
LA         Sib     DO        FA    LA  Sib DO  (Riff 5)
y que recuerdes: era para siempre
           FA  DO  Rem  LA  Sib  DO  FA
Era para siempre.

Solo2:
e|-8-6-5-6.-6-5-3-5.-5-3--------------------------|  
B|-----------------------6-5-6/8-6.-6-5.-5/6-6..--|
G|------------------------------------------------|  
D|------------------------------------------------|
A|------------------------------------------------|
E|------------------------------------------------|

Riffs:
 
RIFF 1
e|---1-3-6-5-3-1-5..--|  
B|-1------------------|
G|--------------------|  
D|--------------------|  
A|--------------------|
E|--------------------|

RIFF 2
e|-----------8..--|  
B|-5-6-8-5-6------|
G|----------------|  
D|----------------|  
A|----------------|
E|----------------|
 
RIFF 3
e|--------------|  
B|-3-5-6/8-6..--|
G|--------------|  
D|--------------|  
A|--------------|
E|--------------|

RIFF 4
e|----------|  
B|----------|
G|-7/5-4-5--|  
D|-8/7-5-7--|  
A|----------|
E|----------|

RIFF 5
e|--------------------|  
B|-3-5-6/8-6/5-6/8..--|
G|--------------------|  
D|--------------------|  
A|--------------------|
E|--------------------|
		   
AcordesyTabs.com © 2008 Acordes y Tablaturas para guitarra. Tabs and Chords for guitar. Aviso Legal - Contacto
El uso de este sitio está sujeto a la aceptación de los términos y condiciones (27 usuarios online)