tablaturas, partituras y acordes para guitarra
Busca por banda/artista:
 
y/o título de la canción:
A B C D E F G H I J K L M N O P Q R S T U V W X Y Z 0 1 2 3 4 5 6 7 8 9 / Top 100 tabs
Categorías
Usuarios
usuario:
Darse de alta
password:
Artistas más visitados
Publicidad
TOP acordes y tablaturas de Attaque 77


Estás en: Inicio > Letra A > Acordes y tablaturas de Attaque 77 > Lo que quieras
Lo que quieras
de Attaque 77
Puntúa este acorde/tab:      
(0.4/5)
Reportar este acorde/tab
  Añadir a tus favoritos
  Imprimir
Esta es una versión mas completa de este temazo de Attaque,
espero que lo entiendan y puedan disfrutarlo.

INTRO: G# F# E x 4

G# F# E                               G# F# 
       No quiero vivir en tus sueños,
      E          	         G# F# 
       mis alas quiero desplegar
      E	           		   G# F# 
       No pertenezco a ningún lado,
      E(En 7th)
       alguna vez me entenderás.

RIFF 1
    C#   B    A
e---------------------------
B---------------------------
G---6----4----2-------------
D---------------------------
A---------------------------
E---------------------------

G#                        A    RIFF 1
Si camino sólo por las calles
G#                        A     B
es porque así me siento mucho mejor.


RIFF 2
    E    A     B     E
e---7----------------7------
B---9----10----12----9------
G---9----9-----11----9------
D---------------------------
A---------------------------
E---------------------------

RIFF 2 
Tendrás todo lo que quieras
Menos mi corazón
Tendrás todo lo que quieras
Menos mi corazón
Tendrás todo lo que quieras
Menos mi corazón
Tendrás todo lo que quieras
A (Pallmuted)          B
Si es que lo puedes lograr.

INTRO

No quiero que confundas todo, 
cuando a mi lado vos pasas
Pretendés arrancar mi vida,
con tu mirada angelical.

Eres tan dulce, dulce como lágrimas del cielo
Pero, nena, nunca podré unirme a tu vuelo.

Tendrás todo...

INTRO x 4

SOLO
e-----------------------------------------------------
B-----------------------------------------------------
G-----9*---11---9---88---66-------9*------------------
D--6---------------------------7-------9/11---9—--7---
A-----------------------------------------------------
E-----------------------------------------------------

e----------------------------------------------------
B-----------------------------------------------18---
G-------2---4---6---8---9---11---13---14---16---18---
D---6------------------------------------------------
A----------------------------------------------------
E----------------------------------------------------

Acelerando en el camino, 
todo lo malo queda atrás
Te aferrarás a mi recuerdo, 
yo buscaré, mi libertad

Y por más que viaje contra el viento
Siempre ser, un gitano sucio y ladrón.

Tendrás todo...

Bueno esto es todo cualquier duda me escriben.
Alguien que se ponga las pilas y saque los solos de 
CHICOS Y PERROS y DE CUAL ES EL PRECIO y mejoren los acordes.
AGUANTE A77AQUE!!!!!!!
		   
AcordesyTabs.com © 2008 Acordes y Tablaturas para guitarra. Tabs and Chords for guitar. Aviso Legal - Contacto
El uso de este sitio está sujeto a la aceptación de los términos y condiciones (18 usuarios online)