tablaturas, partituras y acordes para guitarra
Busca por banda/artista:
 
y/o título de la canción:
A B C D E F G H I J K L M N O P Q R S T U V W X Y Z 0 1 2 3 4 5 6 7 8 9 / Top 100 tabs
Categorías
Usuarios
usuario:
Darse de alta
password:
Artistas más visitados
Publicidad
TOP acordes y tablaturas de Silvio Rodriguez


Estás en: Inicio > Letra S > Acordes y tablaturas de Silvio Rodriguez > Lo que quisiste ser
Lo que quisiste ser
de Silvio Rodriguez
Puntúa este acorde/tab:      
(0.1/5)
Reportar este acorde/tab
  Añadir a tus favoritos
  Imprimir
Introducción


      Fam#        Re                     La    Fam#      Mi
e:-------5-----2--0-------------------------0--5---------0-------0--------|
B:----------2-------3--2--0--2--0-----0--2--------2-h-3-------0-----------|
G:---------------------------------2-----------------------3--------------|
D:----------------0-------------------------------------------------------|
A:----2----------------------------------0--------------------------------|
E:---------------------------0-----------------2---------0----------0-h-3-|
                              


e:-----------------------------------|
B:-----------------------------------|
G:-----------------------------------|
D:--------2--2-h-4--2--0-------------|
A:-0-h-3------------------4--2-h-0---|
E:----------------------------------2|



 
Fam#      Mi          Re·Mi
A)¿Que necesita un ser humano
    La     Re       Mi 
para no apartarse de si?
  Fam#      Mi            Re·Mi
¿A que distancia esta Mi mano
    La   Re         Mi
de Mi gente que conocí?
   Re                 Mi
¿Que le ha faltado a la verdad
 Re            Mi
para quererla disfrazar?
(VI-0-2-3)Sol                La
¿Por que un bufón llena el lugar
 Sol                   La
donde hubo sitio para amar?
  Mi                  La
¿Por que fingimos confusión
 Mi                   La
hasta acabar con la razón?
 Re                  La
En fin, no se como decir
                            Sid7
fue todo ha vuelto a ser normal
                        Mi
solo si se que no eres ya
                   (Intro)
lo que quisiste ser.

A)Cuando Mis ojos se hacen aire
con tristeza pienso en el mar
porque Mi tiempo es tu distancia
recorrida para olvidar
y veo un dibujo del amor
saltando un cielo sin color
buscando un mundo por rastrear
una ansiedad y otra ansiedad
río de mar hecho a crayón
porque quien aprende a dibujar
en fin, no se como decir
que se ha arruinado a la canción
solo si se que no eres ya 
lo que quisiste ser.

A)Veo tus brazos que se han llevado Mil adornos sobre su piel
y han olvidado hasta que fueron
una historia de amanecer
y tu en función de relucir
dejas la magia humana y vas
a interpretar otro papel
fingiendo para diferir
no se si es desesperación
o humilde, ya resignación
en fin, no se como llamar
esta visión de un pavo real
solo si sé que no eres ya 
lo que quisiste ser.

Estas tablaturas han sido creadas  por Pavell Galvez Orosco 
(pavellgal@hotmail.com) y publicadas en 
Silvio Rodríguez – La Palabra Precisa (www.palabraprecisa.com).
		   
AcordesyTabs.com © 2008 Acordes y Tablaturas para guitarra. Tabs and Chords for guitar. Aviso Legal - Contacto
El uso de este sitio está sujeto a la aceptación de los términos y condiciones (28 usuarios online)