tablaturas, partituras y acordes para guitarra
Busca por banda/artista:
 
y/o título de la canción:
A B C D E F G H I J K L M N O P Q R S T U V W X Y Z 0 1 2 3 4 5 6 7 8 9 / Top 100 tabs
Categorías
Usuarios
usuario:
Darse de alta
password:
Artistas más visitados
Publicidad
TOP acordes y tablaturas de Attaque 77


Estás en: Inicio > Letra A > Acordes y tablaturas de Attaque 77 > Hay una bomba en el colegio
Hay una bomba en el colegio
de Attaque 77
Puntúa este acorde/tab:      
(0.5/5)
Reportar este acorde/tab
  Añadir a tus favoritos
  Imprimir
Riff A
1|---11-----11-----11--0--0---------0--0--|
2|------11-----11------------3--3---------|
3|----------------------------------------| x2
4|----------------------------------------|
5|----------------------------------------|
6|----------------------------------------|

Riff B
1|------------------------------------------------|
2|--4--4-------4--4-------4--4--3--3--1--1--3--3--|
3|--------3--3-------3--3-------------------------| x2
4|------------------------------------------------|
5|------------------------------------------------|
6|------------------------------------------------|


 F5             Bb5   C5
Hay una bomba en el colegio
 F5         Bb5    C5
pronto,todos a correr
    F5                  Bb5           C5
El cuadro de Sarmiento tirado en el suelo
F5     Bb5        C5
y tu pollera también

 G#5                 C#5      D#5 
Pronto,aprovecharemos la confusión
G#5      C#5  D#5
y hagamos el amor
G#5            C#5    D#5
No,no insistas con el baño
  G#5                  Bb5
debajo del pupitre es mucho mejor

Riff A

Botas Kickers patándome los huevos.....

Nunca imaginaste estar así.....

Riff A
Riff B

Falsa alarma en el colegio....

¡Qué vergüenza!,¡Qué ejemplo!.....

F5              Bb5  C5
Días de escuela
F5              Bb5   C5
Dias de escuela,no,no,no,no
		   
AcordesyTabs.com © 2008 Acordes y Tablaturas para guitarra. Tabs and Chords for guitar. Aviso Legal - Contacto
El uso de este sitio está sujeto a la aceptación de los términos y condiciones (31 usuarios online)