tablaturas, partituras y acordes para guitarra
Busca por banda/artista:
 
y/o título de la canción:
A B C D E F G H I J K L M N O P Q R S T U V W X Y Z 0 1 2 3 4 5 6 7 8 9 / Top 100 tabs
Categorías
Usuarios
usuario:
Darse de alta
password:
Artistas más visitados
Publicidad
TOP acordes y tablaturas de Belinda


Lo Siento
de Belinda
Puntúa este acorde/tab:      
(0.8/5)
Reportar este acorde/tab
  Añadir a tus favoritos
  Imprimir
INTRO/CORO
e|-------------------------------------|
B|-------------------------------------|
G|-7-7-7-7-----------------------------|
D|-7-7-7-7-7-7-7-7-9-9-9-9-5-5-5-5-----|
A|-5-5-5-5-7-7-7-7-9-9-9-9-5-5-5-5-----|
E|---------5-5-5-5-7-7-7-7-3-3-3-3-----|

VERSO

e|---------------------------------|
B|---------------------------------|
G|-77------------------------------|
D|-77------77-------99-----5~------|
A|-55------77-------99-----5~------|
E|---------55-------77-----3~------|

INTRO/BRIDGE


e|------------------------|
B|------------------------|
G|-8-99-8-99-8-99-8-9~----|
D|------------------------|
A|------------------------|
E|------------------------|

REKINTO


e|--------------------------------------|
B|-9--9--7-----7------------------------|
G|----------9-----9--7-7-9/11--7--------|
D|--------------------------------------|
A|--------------------------------------|
E|--------------------------------------|
		   
AcordesyTabs.com © 2008 Acordes y Tablaturas para guitarra. Tabs and Chords for guitar. Aviso Legal - Contacto
El uso de este sitio está sujeto a la aceptación de los términos y condiciones (15 usuarios online)