tablaturas, partituras y acordes para guitarra
Busca por banda/artista:
 
y/o título de la canción:
A B C D E F G H I J K L M N O P Q R S T U V W X Y Z 0 1 2 3 4 5 6 7 8 9 / Top 100 tabs
Categorías
Usuarios
usuario:
Darse de alta
password:
Artistas más visitados
Publicidad
TOP acordes y tablaturas de los Tres


Estás en: Inicio > Letra l > Acordes y tablaturas de los Tres > He Barrido el Sol
He Barrido el Sol
de los Tres
Puntúa este acorde/tab:      
(0.5/5)
Reportar este acorde/tab
  Añadir a tus favoritos
  Imprimir
  He barrido el sol de este lugar
1---------------------------------------
2---------------------7-------7---------
3-----5-------5---5-------5-------------
4-3-------3-----------------------------   


  Arrastre el calor del basural
1---------------------------------------
2---------------------7-------7---------
3-----5-------5---5-------5-------------
4-3-------3-----------------------------  


  Que brillaba sobre ti
1---------------------------------------
2----9------------------10--------------
3-7--------9-----10--8------------------
4-------7-----8-------------------------  


  No se si fue tan asi
1---------------------------------------
2-------------7-------------------------
3-----7---5-----------------------------
4-5-------------------------------------  


  Lo mismo en la siguiente estrofa 
  (Con mi  voz de plata...)  

  No es tan facil ser feliz
1--------------------------------------
2-----------4-----9--------------------
3----10--22----77----------------------
4-88-----------------------------------  


  Cuando opacaste el barniz
1---------------------------------------
2-----------4-----9---------------------
3----10--22----77-----------------------
4-88------------------------------------  


  Que pintaste verde azul y gris
1---------------------------------------
2------------------------------9--------
3-----------3---------------7-----------
4--------1------------------------------ 
  

  Que quitaste a espaldas de mi
1---------------------------------------
2------------------------------9--------
3-----------3---------------7-----------
4--------1------------------------------ 
  

  Que pintaste verde
1---------------------------------------
2-----------------9-----7---------------
3-----------3--7-----5--------5---------
4--------1-----------------3------------  

  Luego se repite en el mismo orden 
  (excepto la parte de 'no estan facil...')  
  Y finalmente se repite todo.
		   
AcordesyTabs.com © 2008 Acordes y Tablaturas para guitarra. Tabs and Chords for guitar. Aviso Legal - Contacto
El uso de este sitio está sujeto a la aceptación de los términos y condiciones (31 usuarios online)