tablaturas, partituras y acordes para guitarra
Busca por banda/artista:
 
y/o título de la canción:
A B C D E F G H I J K L M N O P Q R S T U V W X Y Z 0 1 2 3 4 5 6 7 8 9 / Top 100 tabs
Categorías
Usuarios
usuario:
Darse de alta
password:
Artistas más visitados
Publicidad
TOP acordes y tablaturas de los Tres


Estás en: Inicio > Letra l > Acordes y tablaturas de los Tres > He Barrido el Sol
He Barrido el Sol
de los Tres
Puntúa este acorde/tab:      
(0.2/5)
Reportar este acorde/tab
  Añadir a tus favoritos
  Imprimir
  
 Esta es la mejor transcipcion de bajo
 que pueden encontrar de esta cancion,
 ya habia mandado una, pero esta es 
 aun mejor y mas veridica.
 El signo # significa que la cuerda va
 al aire. 
 Saludos para el guaton Jose,
 Rorro, Bruno, y en especial a Alfonso(besos)
 ¡viva la U de Chile!

  
 (Antes de cada estrofa viene esta 
  pequeña introduccion, escuchen la
  cancion y sabran los tiempos y 
  donde viene la introduccion)

A
1-----------------------------------
2-----------------------------------
3-5-5--3-2-------5-------5----------
4----------5-3-------3--------------

B He barrido el sol de este lugar
1------------------------------------
2---------------------7-------7------
3-----5-------5---5-------5----------
4-3-------3--------------------------

  Arrastre el calor del basural
1------------------------------------
2---------------------7-------7------
3-----5-------5---5-------5----------
4-3-------3--------------------------

  Que brillaba sobre ti
1------------------------------------
2----9------------------9------------
3-7--------9-----10--7---------------
4-------7-----8----------------------

  No se si fue tan asi
1------------------------------------
2-------------7-------5--------------
3-----7---5-------3-----------5------
4-5-----------------------3----------

  Lo mismo se repite en la siguiente
  estrofa ( Con mi voz de plata ....)

C No es tan facil ser feliz
1------------------------------------
2------------------------------------
3-----3-----3------2-----2-----------
4-1--3--1--3---#--2--#--2------------

  Cuando opacaste el barniz
1------------------------------------
2------------------------------------
3-----3-----3-----2-----2------------
4-1--3--1--3--#--2--#--2-------------

  Que pintaste verde azul y gris
1-------------------------------------
2-------------------------------9-----
3-------------3-------------7-7-------
4---------1-1-------------------------

  Que quitaste a espaldas de mi
1-------------------------------------
2-------------------------------------
3-------------3-----------------9-----
4---------1-1---------------7-7-------

  Que pintaste verde
1-------------------------------------
2-------------------------------------
3-------------3------9--5-5-3-2-----5-
4---------1-1----7-7------------5-3---

  Se repite la parte B dos veces y despues
  se vuelve a repetir junto con la parte C.
		   
AcordesyTabs.com © 2008 Acordes y Tablaturas para guitarra. Tabs and Chords for guitar. Aviso Legal - Contacto
El uso de este sitio está sujeto a la aceptación de los términos y condiciones (20 usuarios online)