tablaturas, partituras y acordes para guitarra
Busca por banda/artista:
 
y/o título de la canción:
A B C D E F G H I J K L M N O P Q R S T U V W X Y Z 0 1 2 3 4 5 6 7 8 9 / Top 100 tabs
Categorías
Usuarios
usuario:
Darse de alta
password:
Artistas más visitados
Publicidad
TOP acordes y tablaturas de los Panchos


Los Dos
de los Panchos
Puntúa este acorde/tab:      
(0.5/5)
Reportar este acorde/tab
  Añadir a tus favoritos
  Imprimir
 Este es uno de los requintos mas sencillos de los 
 panchos, el tab es claro no tiene errores.

__      
                                         
   1|---7-9-10--7---------7-9---------------
 ) 2|-------------8----10-----10--7---------
   3|---------------9---------------8-------
   4|---------------------------------------
 ) 5|---------------------------------------
   6|---------------------------------------
__/



      
                                         
   1|----------------7-----7---------------2----
 ) 2|----7----7-8-10-----8--8-----2-3-2--2--5-3-
   3|------10---------------------------5-------
   4|-------------------------------------------
 ) 5|-------------------------------------------
   6|-------------------------------------------
__/




 Este  es  mi  primera  tablatura  y se la dedico a mi 
 amorsototote Marisol que 'creo' le gusta esta cancion.
 Alguna duda o sujerencia o requintos de los tres Reyes
 no duden en mandarme un e-mail.
 Gerardo Lee Calera REynosa tamps.(re5to@Latinmail.com)
		   
AcordesyTabs.com © 2008 Acordes y Tablaturas para guitarra. Tabs and Chords for guitar. Aviso Legal - Contacto
El uso de este sitio está sujeto a la aceptación de los términos y condiciones (17 usuarios online)