tablaturas, partituras y acordes para guitarra
Busca por banda/artista:
 
y/o título de la canción:
A B C D E F G H I J K L M N O P Q R S T U V W X Y Z 0 1 2 3 4 5 6 7 8 9 / Top 100 tabs
Categorías
Usuarios
usuario:
Darse de alta
password:
Artistas más visitados
Publicidad
TOP acordes y tablaturas de Attaque 77


Estás en: Inicio > Letra A > Acordes y tablaturas de Attaque 77 > Herminda de la victoria
Herminda de la victoria
de Attaque 77
Puntúa este acorde/tab:      
(0.5/5)
Reportar este acorde/tab
  Añadir a tus favoritos
  Imprimir
Intro: (F# Bb)x2

F#                   Bb
   Herminda de La victoria
F#                    Bb
   murió sin haber luchado.
G#                      C#
   Derecho se fue a la gloria
G#                    Bb
   con el pecho atravezado.

F#                     Bb
   Las balas de los mandados
F#                 Bb
   mataron a la inocente.
G#                      C#
   Lloraban madres y hermanos
F#        F          Bb
   en el medio de la gente.


*Inter: (F# Bb)x2 G# C# G# Bb


F#                      Bb
   Hermanos se hicieron todos.
F#                    Bb
   Hermanos en la desgracia.
G#                     C#
   Peleando contra los lobos.
G#                  Bb
   Peleando por una casa

F#                   Bb
   Herminda de La Victoria
F#                       Bb
   nació en el medio del barro.
G#                 C#
   Creció como mariposas
F#        F        Bb
   en un terreno tomado.


*Solo ([F# Bb]x2 G# C# G# Bb)


F#-F# F#  F#           Bb
      Hicimos la población
F#                       Bb
   y han llovido tres inviernos.
G#                    C#
   Herminda en el corazón,
F#        F          Bb
   guardaremos tu recuerdo (en el corazón)
F#        F          Bb
   guardaremos tu recuerdo (en el corazón)

F#    F    Bb-Bb
Ah... ah...


---------------------------------------------------------------------
*Inter: (F# Bb)x2 G# C# G# Bb
Esta parte es con el órgano, pero suena bien así:
                                  ___
    F#                Bb             
                                     |
e --14---|         |--14--|          |
B --14---|         |--13--|          |
G ---X---| varias  |---X--| varias    >     x2
D ---X---| veces   |---X--| veces    |
A ---X---|         |---X--|          |
E ---X---|         |---X--|          |
                                  ___/


    G#                  C#           G#                       Bb
e --------------------------------|----------------------------------|
B --------------------------------|----------------------------------|
G --------------------------------|----------------------------------|
D ----------------------4---3-----|----------------------------------|
A -----------3---4---6------------|-----------3---4------------------|
E --4---6-------------------------|--4---6----------4/6---64/6/96--|


----------------------------------------------------------------------------------
*Solo ([F# Bb]x2 G# C# G# Bb)

    F#                              Bb              F#           Bb
e --13----13----13---------------------------|-----------------------------------|
B -----11----11----11---13/1413-11h13p11----|--9-9b10-----642/6----9--6-------|
G ---------------------------------------10--|----------------------------8-7----|
D -------------------------------------------|-------------------------------8~--|
A -------------------------------------------|-----------------------------------|
E -------------------------------------------|-----------------------------------|

   G#                    C#                           G#         Bb
e ----------------9-9-11-9-------------------------|-----------------|
B -----9-9-11-9--------------9-9-11-9--9/1211-9~--|--9---11--13-14--|
G -------------------------------------------------|-----------------|
D -------------------------------------------------|-----------------|
A -------------------------------------------------|-----------------|
E -------------------------------------------------|-----------------|
		   
AcordesyTabs.com © 2008 Acordes y Tablaturas para guitarra. Tabs and Chords for guitar. Aviso Legal - Contacto
El uso de este sitio está sujeto a la aceptación de los términos y condiciones (39 usuarios online)