tablaturas, partituras y acordes para guitarra
Busca por banda/artista:
 
y/o título de la canción:
A B C D E F G H I J K L M N O P Q R S T U V W X Y Z 0 1 2 3 4 5 6 7 8 9 / Top 100 tabs
Categorías
Usuarios
usuario:
Darse de alta
password:
Artistas más visitados
Publicidad
TOP acordes y tablaturas de Marcos Witt


Estás en: Inicio > Letra M > Acordes y tablaturas de Marcos Witt > Hermoso Eres
Hermoso Eres
de Marcos Witt
Puntúa este acorde/tab:      
(0.2/5)
Reportar este acorde/tab
  Añadir a tus favoritos
  Imprimir
   La   ReMaj7            Mi
EN MI CORAZON HAY UNA CANCION
La    ReMaj7        Mi
QUE DEMUESTRA MI PASION
  Fa#m7(add4)    Fa#m7    Re(add9)    La/Do#
     PARA   MI    REY Y MI SEÑOR
Sim7         Sim7/La   Misus4   Mi
PARA AQUEL QUE ME       AMO
La     Do#m7  Re(add9)     Mi
HERMOSO ERES          MI SEÑOR
La      Do#m7    Re(add9)      Mi
HERMOSO ERES TU         AMADO MIO
Sim7       Sim9           Mi    Misus4   Mi
TU ERES LA FUENTE DE MI VIDA
Sim7  La/Do#   Re      Misus4   Mi
Y EL  ANHELO   DE MI CORAZON
Sim7  La/Do# Re  Mi     La
Y EL  ANHELO DE  MI CORAZON

    ReMaj7   Fa#m7(add4)  Re(add9)  La/Do#  Sim7/La
M-----2-----------0----------0---------0-------2------
B-----2-----------0----------3---------0-------3------
G-----2-----------2----------2---------2-------0------
D-----0-----------2----------0---------2-------4------
A-----0-----------0----------0---------4-------0------
E-----0-----------2----------0---------0-------0------

     Sim9    Misus4
M------2--------0----
B------2--------0----
G------2--------2----
D------4--------2----
A------2--------2----
E------2--------0----
		   
AcordesyTabs.com © 2008 Acordes y Tablaturas para guitarra. Tabs and Chords for guitar. Aviso Legal - Contacto
El uso de este sitio está sujeto a la aceptación de los términos y condiciones (38 usuarios online)