tablaturas, partituras y acordes para guitarra
Busca por banda/artista:
 
y/o título de la canción:
A B C D E F G H I J K L M N O P Q R S T U V W X Y Z 0 1 2 3 4 5 6 7 8 9 / Top 100 tabs
Categorías
Usuarios
usuario:
Darse de alta
password:
Artistas más visitados
Publicidad
TOP acordes y tablaturas de Leusemia


Estás en: Inicio > Letra L > Acordes y tablaturas de Leusemia > Los gatos de bronce
Los gatos de bronce
de Leusemia
Puntúa este acorde/tab:      
(0.7/5)
Reportar este acorde/tab
  Añadir a tus favoritos
  Imprimir
Intro: Do Mim Lam Mim Fa Rem Sol Sol7

           Do                     Mim
Tiene el sonido del viento en sus manos
           Lam                  Mim
Tiene el secreto del mundo al reves
      Fa            Sol               Lam  Sol
Tiene las palabras exactas una y otra vez

           Do               Mim
Se mueve suave y habla despacito 
      Lam                 Mim
Su sonrisa me oblica a correr
         Fa          Sol        Lam  Sol  
Mientras colorea mis pasos cada vez


       Do*                 Mim
Con su sombra me enseña un baile 
       Lam*                  Mim
Y unos versos sobre gatos de bronce
       Fa                        Sol         Lam  Sol
Con su voz se me olvida hasta el nombre otra vez

    *
e|--8-7-5-7-5---5--------------------|
B|------------8---8-6-8-6-5-6-5------|
G|------------------------------7-5--|
D|-----------------------------------|
A|-----------------------------------|
E|-----------------------------------|

        Do**               Mim 
Pero me siento atrapado de nuevo
       Lam**           Mim 
Cuando la distacia se acerca
      Fa                Sol        Lam  Sol
Y me vuelvo a ver tan pequeño otra vez

    **
e|--12-10-8-10-8--------------------------------|
B|---------------12-10-12-10-12-10-8-10-8-------|
G|----------------------------------------10-9--|
D|----------------------------------------------|
A|----------------------------------------------|
E|----------------------------------------------|

        Fa              Sol    Lam  Mim 
Que me puede quedar después de Ti
     Fa               Sol       Do  MIm  Do
Solo verme atrapado y solo otra vez
		   
AcordesyTabs.com © 2008 Acordes y Tablaturas para guitarra. Tabs and Chords for guitar. Aviso Legal - Contacto
El uso de este sitio está sujeto a la aceptación de los términos y condiciones (21 usuarios online)