tablaturas, partituras y acordes para guitarra
Busca por banda/artista:
 
y/o título de la canción:
A B C D E F G H I J K L M N O P Q R S T U V W X Y Z 0 1 2 3 4 5 6 7 8 9 / Top 100 tabs
Categorías
Usuarios
usuario:
Darse de alta
password:
Artistas más visitados
Publicidad
TOP acordes y tablaturas de Avril Lavigne


He Wasnt
de Avril Lavigne
Puntúa este acorde/tab:      
(0.3/5)
Reportar este acorde/tab
  Añadir a tus favoritos
  Imprimir

AVRIL LAVIGNE
HE WASN'T
(UNDER MY SKIN)
TABBED BY SIMON RICHARDS (DELONGE_HOPPUS@HOTMAIL.COM)

I AM NOT 100% SURE ON THIS TAB BUT I FIGURED SEEIN AS NOONE ELSE HAS ATTEMPTED I
SOUNDS EXCELLENT GOOD TRACK TOO, ENJOY.

Intro
E|-----------------------|-----------------------|-----------------------|------
B|--8--------------------|--8--------------------|--6--------------------|--6---
G|--7-----7--7--7--7-----|--7-----7--7--7--7-----|--5-----5--5--5--5-----|--5---
D|--5-----5--5--5--5--5--|--5-----5--5--5--5--5--|--3-----3--3--3--3--3--|--3---
A|-----5--5--5--5--5--5--|-----5--5--5--5--5--5--|-----3--3--3--3--3--3--|-----3
E|-----------------------|-----------------------|-----------------------|------

Verse
E|-----------------------|-----------------------|-----------------------|------
B|--8--------------------|--8--------------------|--6--------------------|--6---
G|--7-----7--7--7--7-----|--7-----7--7--7--7-----|--5-----5--5--5--5-----|--5---
D|--5-----5--5--5--5--5--|--5-----5--5--5--5--5--|--3-----3--3--3--3--3--|--3---
A|-----5--5--5--5--5--5--|-----5--5--5--5--5--5--|-----3--3--3--3--3--3--|-----3
E|-----------------------|-----------------------|-----------------------|------

E|-----------------------|-----------------------|-----------------------|------
B|--8--------------------|--8--------------------|--6--------------------|--6---
G|--7-----7--7--7--7-----|--7-----7--7--7--7-----|--5-----5--5--5--5-----|--5---
D|--5-----5--5--5--5--5--|--5-----5--5--5--5--5--|--3-----3--3--3--3--3--|--3---
A|-----5--5--5--5--5--5--|-----5--5--5--5--5--5--|-----3--3--3--3--3--3--|-----3
E|-----------------------|-----------------------|-----------------------|------

E|-----------------------|-----------------------|-----------------------|------
B|--8--------------------|--8--------------------|--6--------------------|--6---
G|--7-----7--7--7--7-----|--7-----7--7--7--7-----|--5-----5--5--5--5-----|--5---
D|--5-----5--5--5--5--5--|--5-----5--5--5--5--5--|--3-----3--3--3--3--3--|--3---
A|-----5--5--5--5--5--5--|-----5--5--5--5--5--5--|-----3--3--3--3--3--3--|-----3
E|-----------------------|-----------------------|-----------------------|------

E|---------------|--------------|-----------|----------------|----------------|-
B|---------------|--------------|-----------|----------------|----------------|-
G|---------------|--------------|--hm-hm-hm-|----------------|----------------|-
D|--8---8--x--x--|--7--x--x--x--|--x--x--x--|--3------2------|--3------2------|-
A|--8---8--x--x--|--7--x--x--x--|--x--x--x--|--3->->--2->->--|--3->->--2->->--|-
E|--6---6--x--x--|--5--x--x--x--|--x--x--x--|--1------0------|--1------0------|-

Chorus
E|--------------------------|--------------------------|--5-5-5--|
B|--------------------------|--------------------------|--x-x-x--|
G|--7--7--7--7--7--7--7--7--|--------------------------|--2-2-2--|
D|--7--7--7--7--7--7--7--7--|--5--5--5--5--5--5--5--5--|---------|
A|--5--5--5--5--5--5--5--5--|--5--5--5--5--5--5--5--5--|---------|
E|--------------------------|--3--3--3--3--3--3--3--3--|---------|

E|--------------------------|--------------------------|--5b-5b-5b-|
B|--------------------------|--------------------------|--x--x--x--|
G|--7--7--7--7--7--7--7--7--|--------------------------|--2--2--2--|
D|--7--7--7--7--7--7--7--7--|--5--5--5--5--5--5--5--5--|-----------|
A|--5--5--5--5--5--5--5--5--|--5--5--5--5--5--5--5--5--|-----------|
E|--------------------------|--3--3--3--3--3--3--3--3--|-----------|

Bridge
E|-----------------------------------------|---------|--------------------------
B|-----------------------------------------|---------|--------------------------
G|--7--7--7--7--7--7--7--7--7--7--7--7--7--|--6-h-7--|--7--7--7--7--7--7--7--7--
D|--7--7--7--7--7--7--7--7--7--7--7--7--7--|--7---7--|--7--7--7--7--7--7--7--7--
A|--5--5--5--5--5--5--5--5--5--5--5--5--5--|--4-h-5--|--5--5--5--5--5--5--5--5--
E|-----------------------------------------|---------|--------------------------
pm  -  -  -  -  -  -  -  -  -  -  -  -  -               -  -  -  -  -  -  -  -  

Verse
E|-----------------------|-----------------------|--8-8-8--|
B|--6--------------------|--6--------------------|--x-x-x--|
G|--5-----5--5--5--5-----|--5-----5--5--5--5-----|--5-5-5--|
D|--3-----3--3--3--3--3--|--3-----3--3--3--3--3--|---------|
A|-----3--3--3--3--3--3--|-----3--3--3--3--3--3--|---------|
E|-----------------------|-----------------------|---------|

E|-----------------------|-----------------------|-----------------------|------
B|--8--------------------|--8--------------------|--6--------------------|--6---
G|--7-----7--7--7--7-----|--7-----7--7--7--7-----|--5-----5--5--5--5-----|--5---
D|--5-----5--5--5--5--5--|--5-----5--5--5--5--5--|--3-----3--3--3--3--3--|--3---
A|-----5--5--5--5--5--5--|-----5--5--5--5--5--5--|-----3--3--3--3--3--3--|-----3
E|-----------------------|-----------------------|-----------------------|------

E|-----------------------|-----------------------|-----------------------|------
B|--8--------------------|--8--------------------|--6--------------------|--6---
G|--7-----7--7--7--7-----|--7-----7--7--7--7-----|--5-----5--5--5--5-----|--5---
D|--5-----5--5--5--5--5--|--5-----5--5--5--5--5--|--3-----3--3--3--3--3--|--3---
A|-----5--5--5--5--5--5--|-----5--5--5--5--5--5--|-----3--3--3--3--3--3--|-----3
E|-----------------------|-----------------------|-----------------------|------

E|-----------------------|-----------------------|
B|--8--------------------|--8--------------------|
G|--7-----7--7--7--7-----|--7-----7--7--7--7-----|
D|--5-----5--5--5--5--5--|--5-----5--5--5--5--5--|
A|-----5--5--5--5--5--5--|-----5--5--5--5--5--5--|
E|-----------------------|-----------------------|

E|---------------|--------------|-----------|----------------|----------------|-
B|---------------|--------------|-----------|----------------|----------------|-
G|---------------|--------------|--hm-hm-hm-|----------------|----------------|-
D|--8---8--x--x--|--7--x--x--x--|--x--x--x--|--3------2------|--3------2------|-
A|--8---8--x--x--|--7--x--x--x--|--x--x--x--|--3->->--2->->--|--3->->--2->->--|-
E|--6---6--x--x--|--5--x--x--x--|--x--x--x--|--1------0------|--1------0------|-

Chorus
E|--------------------------|--------------------------|--5-5-5--|
B|--------------------------|--------------------------|--x-x-x--|
G|--7--7--7--7--7--7--7--7--|--------------------------|--2-2-2--|
D|--7--7--7--7--7--7--7--7--|--5--5--5--5--5--5--5--5--|---------|
A|--5--5--5--5--5--5--5--5--|--5--5--5--5--5--5--5--5--|---------|
E|--------------------------|--3--3--3--3--3--3--3--3--|---------|

E|--------------------------|--------------------------|--5b-5b-5b-|
B|--------------------------|--------------------------|--x--x--x--|
G|--7--7--7--7--7--7--7--7--|--------------------------|--2--2--2--|
D|--7--7--7--7--7--7--7--7--|--5--5--5--5--5--5--5--5--|-----------|
A|--5--5--5--5--5--5--5--5--|--5--5--5--5--5--5--5--5--|-----------|
E|--------------------------|--3--3--3--3--3--3--3--3--|-----------|

Bridge
E|-----------------------------------------|------------------------------------
B|-----------------------------------------|------------------------------------
G|--7--7--7--7--7--7--7--7--7--7--7--7--7--|--7--7--7--7--7--7--7--7--7--7--7--7
D|--7--7--7--7--7--7--7--7--7--7--7--7--7--|--5--5--5--5--5--5--5--5--5--5--5--5
A|--5--5--5--5--5--5--5--5--5--5--5--5--5--|--5--5--5--5--5--5--5--5--5--5--5--5
E|-----------------------------------------|------------------------------------
pm  -  -  -  -  -  -  -  -  -  -  -  -  -     -  -  -  -  -  -  -  -  -  -  -  -

E|-----------------------------------------|------------------------------------
B|-----------------------------------------|------------------------------------
G|--7--7--7--7--7--7--7--7--7--7--7--7--7--|--7--7--7--7--7--7--7--7--7--7--7--7
D|--7--7--7--7--7--7--7--7--7--7--7--7--7--|--5--5--5--5--5--5--5--5--5--5--5--5
A|--5--5--5--5--5--5--5--5--5--5--5--5--5--|--5--5--5--5--5--5--5--5--5--5--5--5
E|-----------------------------------------|------------------------------------
pm  -  -  -  -  -  -  -  -  -  -  -  -  -     -  -  -  -  -  -  -  -  -  -  -  -

Interlude (?not sure on this?) x2
E|---------------------------|---------------------------|
B|---------------------------|---------------------------|
G|---------------------------|---------------------------|
D|--3------7------5------2-5-|--3------7------5------2-5-|
A|--3->->--7->->--5->->--2-3-|--3->->--7->->--5->->--2-3-|
E|--1------5------3------0-3-|--1------5------3------0-3-|

Next x2
E|----------------------------------------------------|
B|----------------------------------------------------|
G|----------------------------------------------------|
D|--3--3--3--3--3--3--3--3----2--2--2--2--2--2--2--2--|
A|--3--3--3--3--3--3--3--3----2--2--2--2--2--2--2--2--|
E|--1--1--1--1--1--1--1--1----0--0--0--0--0--0--0--0--|
pm  -  -  -  -  -  -  -  -    -  -  -  -  -  -  -  -

Chorus
E|--------------------------|--------------------------|--5-5-5--|
B|--------------------------|--------------------------|--x-x-x--|
G|--7--7--7--7--7--7--7--7--|--------------------------|--2-2-2--|
D|--7--7--7--7--7--7--7--7--|--5--5--5--5--5--5--5--5--|---------|
A|--5--5--5--5--5--5--5--5--|--5--5--5--5--5--5--5--5--|---------|
E|--------------------------|--3--3--3--3--3--3--3--3--|---------|
pm  -  -  -  -  -  -  -  -

E|--------------------------|--------------------------|--5b-5b-5b-|
B|--------------------------|--------------------------|--x--x--x--|
G|--7--7--7--7--7--7--7--7--|--------------------------|--2--2--2--|
D|--7--7--7--7--7--7--7--7--|--5--5--5--5--5--5--5--5--|-----------|
A|--5--5--5--5--5--5--5--5--|--5--5--5--5--5--5--5--5--|-----------|
E|--------------------------|--3--3--3--3--3--3--3--3--|-----------|

E|--------------------------|--------------------------|--5-5-5--|
B|--------------------------|--------------------------|--x-x-x--|
G|--7--7--7--7--7--7--7--7--|--------------------------|--2-2-2--|
D|--7--7--7--7--7--7--7--7--|--5--5--5--5--5--5--5--5--|---------|
A|--5--5--5--5--5--5--5--5--|--5--5--5--5--5--5--5--5--|---------|
E|--------------------------|--3--3--3--3--3--3--3--3--|---------|

E|--------------------------|--------------------------|--5b-5b-5b-|
B|--------------------------|--------------------------|--x--x--x--|
G|--7--7--7--7--7--7--7--7--|--------------------------|--2--2--2--|
D|--7--7--7--7--7--7--7--7--|--5--5--5--5--5--5--5--5--|-----------|
A|--5--5--5--5--5--5--5--5--|--5--5--5--5--5--5--5--5--|-----------|
E|--------------------------|--3--3--3--3--3--3--3--3--|-----------|

Bridge x2
E|-----------------------------------------|------------------------------------
B|-----------------------------------------|------------------------------------
G|--7--7--7--7--7--7--7--7--7--7--7--7--7--|--7--7--7--7--7--7--7--7--7--7--7--7
D|--7--7--7--7--7--7--7--7--7--7--7--7--7--|--7--7--7--7--7--7--7--7--7--7--7--7
A|--5--5--5--5--5--5--5--5--5--5--5--5--5--|--5--5--5--5--5--5--5--5--5--5--5--5
E|-----------------------------------------|------------------------------------

Outro
E|-----------------------|
B|-----------------------|
G|-----------------------|
D|--3------7------5------|
A|--3->->--7->->--5->->--|
E|--1------5------3------|

		   
AcordesyTabs.com © 2008 Acordes y Tablaturas para guitarra. Tabs and Chords for guitar. Aviso Legal - Contacto
El uso de este sitio está sujeto a la aceptación de los términos y condiciones (18 usuarios online)