tablaturas, partituras y acordes para guitarra
Busca por banda/artista:
 
y/o título de la canción:
A B C D E F G H I J K L M N O P Q R S T U V W X Y Z 0 1 2 3 4 5 6 7 8 9 / Top 100 tabs
Categorías
Usuarios
usuario:
Darse de alta
password:
Artistas más visitados
Publicidad
TOP acordes y tablaturas de Finger Eleven


Estás en: Inicio > Letra F > Acordes y tablaturas de Finger Eleven > One Thing Correct
One Thing Correct
de Finger Eleven
Puntúa este acorde/tab:      
(0.1/5)
Reportar este acorde/tab
  Añadir a tus favoritos
  Imprimir
artist:finger eleven
song:one thing

i got this from my new guitar world magazine so i know its correct.

drop D down one half step (Db,Ab,Db,Gb,Bb,Eb)

intro (play 4 times)

Eb------------------------------------------10-------------
Bb-10---------10--------7----------7------------7------10--
Gb-----9----------9---------9---------9------------9-------
Db--------7----------7---------7---------7---7-------------
Ab--0-------------------0-------------------------------0--
Db---------------------------------------------------------

the verse is the same as the intro and play it 4 times

chrous

chords used

A5     Asus2/4  open (O)
-0--    -0--    ----
-10-    -0--    ----
-9--    -7--    -0--
-7--    -9--    -0--
-0--    -0--    -0--
----    ----    ----

heres how they go

     A5                                        O Asus2/4
If I traded it all    If I  gave it all away  for  one  thing just for one thing

   O A5                                         Asus2/4
If I sorted it out    If i know all about  this one thing wouldn't that be somet


on the 2nd chorus (1:41) you can hear another guitar in the background)
and heres what he does

Eb----------------17<->----21br<--(half bend)
Bb-14<--------15<-----------------
Gb--------------------------------


on the third verse the acoustic guitar plays the verse riff faster


thats it.listen to the song to get the strumming down and the swelling.
		   
AcordesyTabs.com © 2008 Acordes y Tablaturas para guitarra. Tabs and Chords for guitar. Aviso Legal - Contacto
El uso de este sitio está sujeto a la aceptación de los términos y condiciones (36 usuarios online)