tablaturas, partituras y acordes para guitarra
Busca por banda/artista:
 
y/o título de la canción:
A B C D E F G H I J K L M N O P Q R S T U V W X Y Z 0 1 2 3 4 5 6 7 8 9 / Top 100 tabs
Categorías
Usuarios
usuario:
Darse de alta
password:
Artistas más visitados
Publicidad
TOP acordes y tablaturas de Attaque 77


Estás en: Inicio > Letra A > Acordes y tablaturas de Attaque 77 > Héroe de Nadie
Héroe de Nadie
de Attaque 77
Puntúa este acorde/tab:      
(0.2/5)
Reportar este acorde/tab
  Añadir a tus favoritos
  Imprimir
Intro: E5-E5-E5 E5-D#5-D#5-C#5

B5
  No haber nacido seria mejor
C#5
   fue el pensamiento que tal vez maquinó
A5                                   C#5  *
  y al verse herido tan solo se sintió.

Quién sabe su alma donde la dejó.
Ciudad oculta o en Lugano 1 y 2.
A5                                      C#5  **
  No hallaba límite entre el odio o el amor.

B5 (E5-E5-E5-D#5) C#5
                      Rey de las calles
B5 (E5-E5-E5-D#5) C#5
                      y la ciudad.
B5 (E5-E5-E5-D#5) C#5
                      Héroe de nadie.
A5
  Hijo de la miseria,
B5     (E5-E5-E5 E5-D#5-D#5)C#5
     nacido     para a guan tar.

Marcado a fuego el llevaba el color
que provocaba discriminación.            *
Y era un problema que jamás le preocupó.

Aún en la noche se oye su arma letal
en guerra siempre contra la autoridad    **
como si fuera un pacto con la oscuridad.

Rey de las calles...

Solo: (B5 C#5)x3 A5 B5

e------9------9--|   |------|--------| |--------|
B-9-11---11-9----|   |-9-11-|--------| |--------|
G----------------|x2 |------|----8-8-| |-6-8-8--|x3
D----------------|   |------|--8-8-8-| |---8-8--|
A----------------|   |------|--------| |--------|
E----------------|   |------|--------| |--------|

e--7-5----|   |------7-|   |-----7--|-7-7-7-7----|
B--7---7--|   |--7h9---|   |-7-9----|-7-7-7-7-7--|
G---------|x5 |--------|x5 |--------|------------|  (E5-E5 E5-D#5-D#5)C#5
D---------|   |--------|   |--------|------------|
A---------|   |--------|   |--------|------------|
E---------|   |--------|   |--------|------------|


Cayó 'Fatiga' en la noche de ayer.
Salió en los diarios y por la tv       ***
que fue un ajuste entre tipos como él.

Aunque en el barrio se decía que
murió enfrentándose con la ley       **
solo la noche, la verdad puede saber.

Rey de las calles...

Rey de las calles
y la ciudad.
Héroe de nadie.
A5                   B5**** B5-B5 B5-B5-B5-C#5
  Hijo de la miseria


=========================================================================
*:
e-------7-------7----------|
B--7h9----9-7-9---9-7------|
G---------------------9-6--|
D--------------------------|
A--------------------------|
E--------------------------|

-------------------------------------------------------------------------
**:
e---------------------|
B--6-------6----------|
G--6---6-8-6-8-6------|
D----------------8-6--|
A---------------------|
E---------------------|

-------------------------------------------------------------------------
***:
e-------7-------7------|
B--7h9----9-7-9---7-9--|
G----------------------|
D----------------------|
A----------------------|
E----------------------|

-------------------------------------------------------------------------
****:
e---------|
B--7------|
G----8----|
D------9--|
A---------|
E---------|

=========================================================================
h = Hammer On
		   
AcordesyTabs.com © 2008 Acordes y Tablaturas para guitarra. Tabs and Chords for guitar. Aviso Legal - Contacto
El uso de este sitio está sujeto a la aceptación de los términos y condiciones (28 usuarios online)