tablaturas, partituras y acordes para guitarra
Busca por banda/artista:
 
y/o título de la canción:
A B C D E F G H I J K L M N O P Q R S T U V W X Y Z 0 1 2 3 4 5 6 7 8 9 / Top 100 tabs
Categorías
Usuarios
usuario:
Darse de alta
password:
Artistas más visitados
Publicidad
TOP acordes y tablaturas de Pearl jam


Alive
de Pearl jam
Puntúa este acorde/tab:      
(0.5/5)
Reportar este acorde/tab
  Añadir a tus favoritos
  Imprimir

Pearl Jam - Alive - Bass Tablature

by Michael Lamberti (mvlamberti@earthlink.net)

This is my first tab.  I did this because all the other tabs for this,
that I've seen, are wrong.  This may not be 100% correct, but it's damn
near close to it.  Any suggestions, comments, complaints or whatever,
just email me.

Jeff plays this on a fretless.  Listen to the song to get the timing
of the slides.  Some of the slides won't sound good on a fretted bass,
but what the hell, right? :)

Intro			   *slowly!    *slowly!
G|--------------|----------------------------|---------------|
D|--------------|*---------5/----------7---*|---------------|
A|-0~~~~---12-|*-0-0-5/7-----0-0-5/7------*|-8888-10-------|
E|--------------|----------------------------|---------8~~~~-|

1st Verse	       Play 4x
G|----------------------------|-----------------|
D|*---------5/----------7---*|*---------------*|
A|*-0-0-5/7-----0-0-5/7------*|*-8888-10-------*|
E|----------------------------|----------8~~~~--|

1st Chorus	       Play 3x
G|----------------------------|---------------|
D|*--------------------------*|---------------|
A|*--------------5-5---------*|------6666-6/9-|
E|-12--3-3333------5-5555---|-7777----------|

2nd Verse	       Play 4x
G|----------------------------|-----------------|
D|*---------5/----------7---*|*---------------*|
A|*-0-0-5/7-----0-0-5/7------*|*-8888-10-------*|
E|----------------------------|----------8~~~~--|

2nd Chorus	       Play 4X
G|----------------------------|
D|*--------------------------*|
A|*--------------5-5---------*|
E|-12--3-3333------5-5555---|

After 2nd Chorus
G|-------------------|----------------------|
D|-------------------|----------------------|
A|------6666-6/9-----|------6666-6/9--------|
E|-7777----------2~~-|-7777----------2/14~~-|

G|-------------------|---------------------|
D|-------------------|------------------4-|
A|------6666-6/9-----|------6666-6/9-------|
E|-7777----------2~~-|-7777----------2~----|

Bridge
G|----------------|-------------|-------------|
D|*--------------*|-------------|-------------|
A|*-4-2/5--4-75-*|-6-4/7-6-97-|-6-4/7-6-4/7-|
E|----------------|-------------|-------------|

3rd Chorus	       Play 4X
G|----------------------------|
D|*--------------------------*|
A|*--------------5-5---------*|
E|-12--3-3333------5-5555---|

Guitar Solo	       Play 4x
G|----------------------------|
D|*--------------------------*|
A|*--------------5-5---------*|
E|-12--3-3333------5-5555---|

The Outro is more or less the same as the chorus, just play some of the
notes an octave higher and add some of your own flare and what not.

This is the little end solo (if you'd even call it that).
G|-----------------------------21--------------|
D|-----------17----17-19/21-21----21-19-17-----|
A|-/19-17-19----19-------------------------19-|
E|---------------------------------------------|



		   
AcordesyTabs.com © 2008 Acordes y Tablaturas para guitarra. Tabs and Chords for guitar. Aviso Legal - Contacto
El uso de este sitio está sujeto a la aceptación de los términos y condiciones (19 usuarios online)