tablaturas, partituras y acordes para guitarra
Busca por banda/artista:
 
y/o título de la canción:
A B C D E F G H I J K L M N O P Q R S T U V W X Y Z 0 1 2 3 4 5 6 7 8 9 / Top 100 tabs
Categorías
Usuarios
usuario:
Darse de alta
password:
Artistas más visitados
Publicidad
TOP acordes y tablaturas de Finger Eleven


Slow Chemical
de Finger Eleven
Puntúa este acorde/tab:      
(0.1/5)
Reportar este acorde/tab
  Añadir a tus favoritos
  Imprimir
Band: Finger Eleven
Song: Slow Chemical
Tabbed by Mit
Tuning: Db Ab Db Gb Bb Eb

Intro (Guitar 1)
|-------------------------------------------------------------------------------
|---3----3----------------------------------------------------------------------
|---2----2----------------------------------------------------------------------
|---0----0----------------------------------------------------------------------
|---0----0----------------------------------------------------------------------
|---0----0----------------------------------------------------------------------
Intro (Guitar 2)
|-------------------------------------------------------------------------------
|-------------------------------------------------------------------------------
|-------------------------------------------------------------------------------
|---2----8---------8------7----7----6---6------------7---7---6---6-------6----6-
|---2----8---------8------4----4----4---4------------4---4---4---4-------4----4-
|---2----8---------8------4----4----4---4------------4---4---4---4-------4----4-

Verse 
|-------------------------------------------------------------------------------
|-------------------------------------------------------------------------------
|-------------------------------------------------------------------------------
|---------7--------------7---slide--5---------------7----------5----------8-/--
|---------8--------------8----------7--------------------7----------------------
--0---------------------------------------------5-------------------------------

Prechorus 
|-------------------------|
|-------------------------|
|-------------------------|
|---------2---3---5---7---|
|---1---------------------|
|-------------------------|

Chorus 
|-------------------------------------------------------------------------------
|-------------------------------------------------------------------------------
|-------------------------------------------------------------------------------
|--------------7--------------7---slide--5---------------8--------8---10-----8--
|--------------8--------------8----------7--------------10-------10---10----10--
|---0---------------------------------------------0-----------------------------

Bridge 
|-------------------------------------------------------------------------|
|-------------------------------------------------------------------------|
|--------4-------3--------------------------------------------------------|
|--------2-------5-------0-------0-------0-----0------0----0-----0----0---|
|--------2----------------------------------------------------------------|
|---------------------3-----3---------3-----3------2-----2----2-----2-----|

		   
AcordesyTabs.com © 2008 Acordes y Tablaturas para guitarra. Tabs and Chords for guitar. Aviso Legal - Contacto
El uso de este sitio está sujeto a la aceptación de los términos y condiciones (27 usuarios online)