tablaturas, partituras y acordes para guitarra
Busca por banda/artista:
 
y/o título de la canción:
A B C D E F G H I J K L M N O P Q R S T U V W X Y Z 0 1 2 3 4 5 6 7 8 9 / Top 100 tabs
Categorías
Usuarios
usuario:
Darse de alta
password:
Artistas más visitados
Publicidad
TOP acordes y tablaturas de Finger Eleven


Estás en: Inicio > Letra F > Acordes y tablaturas de Finger Eleven > Thousand Mile Wish
Thousand Mile Wish
de Finger Eleven
Puntúa este acorde/tab:      
(0.3/5)
Reportar este acorde/tab
  Añadir a tus favoritos
  Imprimir
Finger Eleven: 
“Thousand Mile Wish”
Album: Finger Eleven
By ekolbatx

Strumming is a little weird at the beginning so follow along with the song. I di

Intro: played two times before lyrics come in
E: -----------------------------------------|-------------------------------|
B: -----------------------------------------|-------------------------------|
G: -----------------------------------------|-------------------------------|
D: ---11----11---11-11----11---11-11-11-11--|--9----9---9-9----9--9-9-9-9---|
A: ---9-----9----9--9-----9----9--9--9--9---|--9----9---9-9----9--9-9-9-9---|
E: ---7-----7----7--7-----7----7--7--7--7---|--7----7---7-7----7--7-7-7-7---|

E: -----------------------------------------|-------------------------------|
B: -----------------------------------------|-------------------------------|
G: -----------------------------------------|-------------------------------|
D: ---9-----9----9--9-----9----9--9--9--9---|--7---7--7--7-7-7-7--7-7-7-7---|
A: ---7-----7----7--7-----7----7--7--7--7---|--7---7--7--7-7-7-7--7-7-7-7---|
E: ---5-----5----5--5-----5----5--5--5--5---|--5---5--5--5-5-5-5--5-5-5-5---|

Played another 4x
Then chorus type verse (with intro riff played behind it):

So can we stay until we-
   -closed...    ..our eyes
E: --------------------------------------|---------------------------------|
B: --------------------------------------|---------------------------------|
G: -11--11-11---11--11-11---11-11-11-11--|-9--9-9-----9--9-9----9-9-9-9----|
D: -11--11-11---11--11-11---11-11-11-11--|-9--9-9-----9--9-9----9-9-9-9----|
A: -9---9--9----9---9--9----9--9--9--9---|-7--7-7-----7--7-7----7-7-7-7----|
E: --------------------------------------|---------------------------------|
  Til your dreams.....hold mine
  Just stay until we... ..know we’ve tried

  One    more      time.
E: --------------------------------------|---------------------------------|
B: --------------------------------------|---------------------------------|
G: -11--11-11---11—-11~------------------|---------------------------------|
D: -11--11-11---11—-11~------------------|---------------------------------|
A: -9---9--9----9---9~-------------------|---------------------------------|
E: --------------------------------------|---------------------------------|

Cuz laughing lovers...(intro riff played behind again)
E: ---------------------------------|---------------------------|
B: -----------7-7-7--9--7-7-7-------|-------7-7-7--9--7-7-7-----|
G: ---------------------------------|---------------------------|
D: ---------------------------------|---------------------------|
A: --------9------------------------|----7----------------------|
E: ---(played kinda fast 4x)--------|--(same speed, 4x as well)-|

And they’ll go on...
They saw something...
Has   never       come    so    close
E: ---9/--12/------14----12------9~------------------|
B: ---------------------------------------------------|
G: ---6/--9/-------11----9-------6~------------------|
D: ---------------------------------------------------|
A: ---------------------------------------------------|
E: ---------------------------------------------------|


   Can it stay until we know...    ..ourselves
   I’m torn as...    ..I tell    You’re the story that I
   Know and...    ..fell from     I’m so far 
   Into Your story...    ..I don’t know why
E: --------------------------------------|---------------------------------|
B: --------------------------------------|---------------------------------|
G: -11--11-11---11--11-11---11-11-11-11--|-9--9-9-----9--9-9----9-9-9-9----|
D: -11--11-11---11--11-11---11-11-11-11--|-9--9-9-----9--9-9----9-9-9-9----|
A: -9---9--9----9---9--9----9--9--9--9---|-7--7-7-----7--7-7----7-7-7-7----|
E: --------------------------------------|---------------------------------|

A lil’ later...

We’ll find the light to follow...(slow strum)
E: --------------------------------7~-----------------|
B: --------------------------------7~-----------------|
G: --------------------------------9~-----------------|
D: --------------------------------9~-----------------|
A: --------------------------------7~-----------------|
E: --------------------------------7~-----------------|

It’s gotta show real soon...
E: ---------------------------------|---------------------------|
B: -----------7-7-7--9--7-7-7-------|-------7-7-7--9--7-7-7-----|
G: ---------------------------------|---------------------------|
D: ---------------------------------|---------------------------|
A: --------9------------------------|----7----------------------|
E: ---(played kinda fast 4x)--------|--(same speed, 4x as well)-|

(then intro riff comes in...and then another chorus/verse)

   all night,     Icould   wish
E: ---9—9/----12------12-----9-----------------------|
B: ---------------------------------------------------|
G: ---6—6/----9-------9------6-----------------------|
D: ---------------------------------------------------|
A: ---------------------------------------------------|
E: -----(not completely sure about this part)---------|

Then you are finished! This is a tight song by the way, hope this tab helped you
		   
AcordesyTabs.com © 2008 Acordes y Tablaturas para guitarra. Tabs and Chords for guitar. Aviso Legal - Contacto
El uso de este sitio está sujeto a la aceptación de los términos y condiciones (13 usuarios online)