tablaturas, partituras y acordes para guitarra
Busca por banda/artista:
 
y/o título de la canción:
A B C D E F G H I J K L M N O P Q R S T U V W X Y Z 0 1 2 3 4 5 6 7 8 9 / Top 100 tabs
Categorías
Usuarios
usuario:
Darse de alta
password:
Artistas más visitados
Publicidad
TOP acordes y tablaturas de Fobia


Estás en: Inicio > Letra F > Acordes y tablaturas de Fobia > Hipnotízame
Hipnotízame
de Fobia
Puntúa este acorde/tab:      
(0.3/5)
Reportar este acorde/tab
  Añadir a tus favoritos
  Imprimir
   ESTA CANCION ESTA ESCRITA EN  VARIOS RIFFS ASI QUE ESTOS
   SON:

   
   RIFF 1:
   E-------------------------------------------------------------------------
   B-------------------------0-------0---------------------------------------
   G-------0------0--------7-------7------7--------0------------------0------
   D-----7------7----7---4-----4-------4-------4-----4-----4----4-------4---4
   A--5------4------------------------------2----2------2-----2----2------2--
   E-------------------------------------------------------------------------

   RIFF 2:

   E-------------------------------------------------------------------------
   B-----------------------------0--------0----------------------------------
   G--------0--------0--------7--------7--------7----------------------------
   D-----7--------7-----7--4--------4--------4-------------------------------
   A--5--------4--------------------------------------4-----4-----4-----4----
   E-----------------------------------------------2-----2-----2-----2-------
 
   E-------------------------------------------------------------------------
   B-------------------------------------------------------------------------
   G-------------------------------------------------------------------------
   D-------------------------------------------------------------------------
   A-----5-----5-----5-----5-------------------------------------------------
   E--3-----3-----3-----3----------------------------------------------------

   CANCION:
   INTRO (RIFF 1)

   RIFF 1
        PUDE CERRAR LOS OJOS 
        PERO NO PUDE DEJAR DE VERTE
   RIFF 2
        Y DEJAR DE DORMIR MAS NO
        DEJAR DE SOŃAR
   RIFF 1
        PUEDO CALLAR LAS VOCES MAS
        NO PUEDO DEJAR DE OIRTE
   RIFF 2
        PUEDO DEJAR DE SER PERO
        NO PUEDO DEJAR DE ESTAR
   
   CORO:
  C(DO)    D(RE)    Am(LAm)  F(FA) 
   BESAME,  HIPNO... TIZA.... ME 
 
     C(DO)                         Gsus4(SOLsus4)
  YA NO ME IMPORTA MAS ROBAME EL ALMA HECHIZAME
 

   RIFF 1
        PUEDO CALMAR MI MENTE
        MAS NO PUEDO CALMAR MI SANGRE
   RIFF 2
        PUEDO SET SINCERO SIN 
        DEJAR DE MENTIR
   RIFF 1
        PUEDO QUEDARME CERCA
        MAS NO PUEDO DEJAR DE HUIRTE
   RIFF 2
        PUEDO CAMBIAR MI VIDA 
        MAS NO PUEDO CAMBIARME A MI
  
     CORO:
  C(DO)    D(RE)    Am(LAm)  F(FA) 
   BESAME,  HIPNO... TIZA.... ME 
 
     C(DO)                    Gsus4(SOLsus4)
  YA NO ME MAS ROBAME EL ALMA HECHIZAME

   C(DO)    D(RE)    Am(LAm)  F(FA) 
   BESAME,  INTO.....XICA.....ME
 
     C(DO)                    Gsus4(SOLsus4)
  YA NO ME IMPORTA SER SIN ALMA ATRAPAME

  
   E----------------------------------
   B----------------------------------
   G--2-2-2--------------------------
   D--2-2-2-10-10-10-10--------------
   A--0-0-0--8--8--8--8-X-10-10-10---
   E---------------------X--8--8--8---
 
   E-------------------------------------------------------------------
   B-------------------------------------------------------------------
   G--2-2-2-----------------------------------------------------------
   D--2-2-2-10-10-10-10-----------------------------------------------
   A--0-0-0--8--8--8--8-X-10-10-10/-9--10-10-10-10-------------------
   E---------------------X--8--8--8/-7---8--8--8--8-------------------

   MISMOS ACORDES QUE EL CORO Y DESPUES:

    C(DO)    D(RE)    Am(LAm)  F(FA) 
   BESAME,  HIPNO... TIZA.... ME 
 
     C(DO)                    Gsus4(SOLsus4)
  YA NO ME IMPORTA MAS ROBAME EL ALMA HECHIZAME

   C(DO)    D(RE)    Am(LAm)  F(FA) 
   BESAME,  IDIO.....TIZA... ...ME
 
     C(DO)                    Gsus4(SOLsus4)
  YA NO ME IMPORTA SER UN SER SIN ALMA ATRAPAME

  
   DE NUEVO SE REPITEN LOS MISMOS ACORDES QUE EN EL CORO, HAY UN PEQUEŃO
   RIFF EN EL CORO QUE NO  LO PONGO PERO LO QUE HAGO YO ES "ARPEGGIO" LAS
   CUERDAS EN LOS ACORDES DEL CORO PERO CON CEJILLA Y SUENA BIEN.

   ACORDES:

       C(DO)   D(RE)    Am(LAm)    F(FA)    Gsus4(SOLsus4)
    E--0--------2---------0---------1---------3-----------
    B--1--------3---------1---------1---------3-----------
    G--0--------2---------2---------2---------5-----------
    D--2--------0---------2---------3---------5-----------
    A--3------------------0---------3---------5-----------
    E-------------------------------1---------3-----------

      MUY BUENA CANCION DE FOBIA PIENSO UNA QUE ES UNA DE LAS MEJORES  BUENO 
      ESO ES TODO, SUGERENCIAS,  PETICIONES, CORRECIONES A Rangel@red2000.com.mx
		   
AcordesyTabs.com © 2008 Acordes y Tablaturas para guitarra. Tabs and Chords for guitar. Aviso Legal - Contacto
El uso de este sitio está sujeto a la aceptación de los términos y condiciones (17 usuarios online)