tablaturas, partituras y acordes para guitarra
Busca por banda/artista:
 
y/o título de la canción:
A B C D E F G H I J K L M N O P Q R S T U V W X Y Z 0 1 2 3 4 5 6 7 8 9 / Top 100 tabs
Categorías
Usuarios
usuario:
Darse de alta
password:
Artistas más visitados
Publicidad
TOP acordes y tablaturas de Fobia


Estás en: Inicio > Letra F > Acordes y tablaturas de Fobia > Hipnotízame
Hipnotízame
de Fobia
Puntúa este acorde/tab:      
(0.3/5)
Reportar este acorde/tab
  Añadir a tus favoritos
  Imprimir
Escribi esta tablatura por que casi todas las tablaturas
de esta rola tenian algunos problemas por ahi y no 
sonaban bien.
estoy casi seguro q esta completamente bien

------------------------------------------------------
------------0---0-------------------------------------
--0----0---7---7-7------0-------0---------------------
---7--7-7-5---4----0--4---4-4-4---4-4-----------------
-5---4---0-----------2-2-2-2-2-2-2-2------------------
------------------------------------------------------

------------------------------------------------------
------------0---0-------------------------------------
---0---0---7---7-7------0-------0---------------------
--7---7-7-5---4----0--4---4-4-4---4-4-----------------
-5---4---0-----------2-2-2-2-2-2-2-2------------------
------------------------------------------------------


-------------------------------------------------------
------------0---0--------------------------------------
---0---0---7---7-7---------------0---------------------
--7---7-7-5---4-----0----0-----------------------------
-5---4---0-------------4---4-4-5--5-5-5----------------
----------------------2-2-2-2-3-3--3-3-----------------

------------------------------------------------------
------------0---0-------------------------------------
---0---0---7---7-7------0-------0---------------------
--7---7-7-5---4----0--4---4-4-4---4-4-----------------
-5---4---0-----------2-2-2-2-2-2-2-2------------------
------------------------------------------------------


-------------------------------------------------------
------------0---0--------------------------------------
---0---0---7---7-7---------------0---------------------
--7---7-7-5---4-----0----0-----------------------------
-5---4---0-------------4---4-4-5--5-5-5----------------
----------------------2-2-2-2-3-3--3-3-----------------


"Besame..."(arpegio)
----------------------
----------------------
---5--5--5---5--5--5--
----5--5------5--5----
--3--3--3---3--3--3---
----------------------

seguir asi hasta:
"Robame el alma...."

------------------------------------------------------
------------0---0-------------------------------------
---0---0---7---7-7------0-------0---------------------
--7---7-7-5---4----0--4---4-4-4---4-4-----------------
-5---4---0-----------2-2-2-2-2-2-2-2------------------
------------------------------------------------------
		x2

-------------------------------------------------------
------------0---0--------------------------------------
---0---0---7---7-7---------------0---------------------
--7---7-7-5---4-----0----0-----------------------------
-5---4---0-------------4---4-4-5--5-5-5----------------
----------------------2-2-2-2-3-3--3-3-----------------

------------------------------------------------------
------------0---0-------------------------------------
---0---0---7---7-7------0-------0---------------------
--7---7-7-5---4----0--4---4-4-4---4-4-----------------
-5---4---0-----------2-2-2-2-2-2-2-2------------------
------------------------------------------------------

-------------------------------------------------------
------------0---0--------------------------------------
---0---0---7---7-7---------------0---------------------
--7---7-7-5---4-----0----0-----------------------------
-5---4---0-------------4---4-4-5--5-5-5----------------
----------------------2-2-2-2-3-3--3-3-----------------

"Besame..." (Arpegio)
----------------------
----------------------
---5--5--5---5--5--5--
----5--5------5--5----
--3--3--3---3--3--3---
----------------------

seguir asi hasta:
"Robame el alma...."

---------------------------------------------------
---------------------------------------------------
------------10------------------------------------- x2
---7-7-7----10--10-----9---------------------------
---7-7-7----8---10-----9---------------------------
---5-5-5--------8------7---------------------------
           se repite
           varias
            veces  
-----------------------------------------------------
------------------------------------------------------
------------------------------------------------------
--10--10--10---2-2-2/3-3-3----------------------------
--10--10--10---2-2-2/3-3-3----------------------------
--8---8---8----0-0-0/1-1-1----------------------------


Ultimo arpegio continua hasta el final de la rola
----------------------
----------------------
---5--5--5---5--5--5--
----5--5------5--5----
--3--3--3---3--3--3---
----------------------



NOTAS:
la parte del arpegio suena bien si lleva el violin y la
guitarra ritmica

si nadamas la estas tocando con una guitarra puedes cambiarlo
para no sonar tan monotomo:


arpegios de los acordes:

----------------------------------------------
----------------------------------------------
---5--7--------5--5---------------------------
---5--7--7--3--5--5--5------------------------
---3--5--7--3--3--3--5------------------------
---------5--1--------3------------------------

es mi primera tablatura pero creo esta bastante bien

dudas, comentarios,  correciones etc etc... a:
Felix Leyva
felix_l@puebla.megared.net.mx
		   
AcordesyTabs.com © 2008 Acordes y Tablaturas para guitarra. Tabs and Chords for guitar. Aviso Legal - Contacto
El uso de este sitio está sujeto a la aceptación de los términos y condiciones (41 usuarios online)