tablaturas, partituras y acordes para guitarra
Busca por banda/artista:
 
y/o título de la canción:
A B C D E F G H I J K L M N O P Q R S T U V W X Y Z 0 1 2 3 4 5 6 7 8 9 / Top 100 tabs
Categorías
Usuarios
usuario:
Darse de alta
password:
Artistas más visitados
Publicidad
TOP acordes y tablaturas de Attaque 77


Estás en: Inicio > Letra A > Acordes y tablaturas de Attaque 77 > Los tiburones
Los tiburones
de Attaque 77
Puntúa este acorde/tab:      
(0.5/5)
Reportar este acorde/tab
  Añadir a tus favoritos
  Imprimir
A77AQUE/Los Tiburones(TAB x H.g.M)
---------------------

Intro: E B E B  G D G D x 2                                        Fill:
-----                                                              ----

e--------------------------------------------------|               e---------
b-12bp10----------10-12bp10--------15--------15-17-|               b-4b-4b-2-
g--------12--9-12-----------12--16----14--16-------|               g---------
d--------------------------------------------------|               d---------
a--------------------------------------------------|               a---------
E--------------------------------------------------|               E---------


E                                                  G             Fill
Va a ser mejor que repleguemos las velas que esto está muy bravo
E                                          G           Fill
A la deriva navegando en la inercia sin un rumbo claro
B          E                G               B
Esas nubes negras en el horizonte amenazan aniquilar
C              E                  D            D C# 
La calma antes de la tormenta que va a desatar...
 C         D     E
¡Toda esta tempestad!


Inter: E B E B  G D G D x 2
-----

e--------------------------------------------------|
b-12bp10----------10-12bp10--------15--------15-19-|
g--------12--9-12-----------12--16----14--16-------|
d--------------------------------------------------|
a--------------------------------------------------|
E--------------------------------------------------|

E                                             G           Fill
En la cubierta es inminente el destino de anarquía y caos
E                                          G             Fill
Los pocos botes salvavidas que había ya fueron saqueados
B         E                G                 B
Mujeres y niños primero utopía de cuentos en Altamar
C              E                 D         D C#
La fuerza se impone por sobre la debilidad...
 C         D        E
¡Y salvese quien pueda!


Solo: E B E B  G D G D x 2
----

e-------------------------------------------------------------------------10/14-|
b---------------12-12-10--12-12-15--17-17-17-17--17-15-----------8---8-10-------|
g-9-9-7--9-9-7-----------------------------------------12----7-9---9------------|
d----------------------------------------------------------9--------------------|
a-------------------------------------------------------------------------------|
E-------------------------------------------------------------------------------|

B                 D              E   D
El infierno tan temido...¡aquí está!
B                 D          E
La imagen tan repetida del timón girando en soledad (del timón girando en soledad)
B                C             A
A punto de naufragar, tan solo alguien que agite algo, que diga al menos...¡Tierra!


Inter: E B E B  G D G D x 2
-----

e-----------------------------------|
b--------------------12-15-19/17/19-|
g--------------9-7~-----------------|
d-9~-10-9-7-------------------------|
a-----------10----------------------|
E-----------------------------------|
                                                                          Fill 2
E                                         G(Fill 2)                   e-----------------|
El desenlace es un cuadro de espanto de terror y llanto               b--------12-12-10-|
E                                          G(Fill 2)                  g-9-9-7-----------|
Todos al agua ya se escuchan los manotazos de ahogado                 d-----------------|
B             E                   G                   B               a-----------------|
Y en pocos instantes desgarran tu carne y comienzan a devorar         E-----------------|
C           E                   D
Son los tiburones que llegan justo en el final (en el final)            
 C# C        D       E
¡Y  tiñen de rojo el mar! 

Inter: E B E B
-----

e---------------------------|
b--------12-12-12--17-17-17-|
g-9-9-9---------------------|
d---------------------------|
a---------------------------|
E---------------------------|

    E           G*           D           E
Cualquier coincidencia...¡Es pura casualidad!

  G*
e--------------------------|
b-12-15--12-15--12-12-15---|
g------------------------9-|
d--------------------------|
a--------------------------|
E--------------------------|
		   
AcordesyTabs.com © 2008 Acordes y Tablaturas para guitarra. Tabs and Chords for guitar. Aviso Legal - Contacto
El uso de este sitio está sujeto a la aceptación de los términos y condiciones (37 usuarios online)