tablaturas, partituras y acordes para guitarra
Busca por banda/artista:
 
y/o título de la canción:
A B C D E F G H I J K L M N O P Q R S T U V W X Y Z 0 1 2 3 4 5 6 7 8 9 / Top 100 tabs
Categorías
Usuarios
usuario:
Darse de alta
password:
Artistas más visitados
Publicidad
TOP acordes y tablaturas de Silvio Rodriguez


Estás en: Inicio > Letra S > Acordes y tablaturas de Silvio Rodriguez > Historia de las sillas
Historia de las sillas
de Silvio Rodriguez
Puntúa este acorde/tab:      
(0.2/5)
Reportar este acorde/tab
  Añadir a tus favoritos
  Imprimir
historia de la silla(tab)

sol             lad           mim         dod               do

-------------|-----------2--|--0--------|-------------5--|--0---------|
---------0---|--------1-----|-----0-----|---------4------|------1-----|
------0------|-----2--------|--------0--|-----5----------|---------0--|
-------------|--1-----------|-----------|--4-------------|------------|
-------------|--------------|-----------|----------------|------------|
--3----------|--------------|-----------|----------------|------------|


la#d             re                         sol6           lad         

----------0---|---------------0^2^3-----|--------------|--------------|
-------2------|--------3-------------3--|-----------3--|--------1-----|
----3---------|-----2-----2-------------|-------0------|-----2-----2--|
-2------------|--0----------------------|--------------|--1-----------|
--------------|-------------------------|--------------|--------------|
--------------|-------------------------|---3----------|--------------|



mim        dod             do          la#d       re

--------|------------5--|--0--------|-----0----|-------2---0^2-----|
--0-----|--------4------|-----1-----|--2-------|--3-------------3--|
-----0--|-----5---------|--------0--|--3-------|--2----------------|
--------|--4------------|-----------|--2-------|--0----------------|
--------|---------------|-----------|----------|-------------------|
--------|---------------|-----------|----------|-------------------|


gracias a jonathan, a roberto y a todos los compañeros que hacen de la
guitarra su vida 'y nada más'...
		   
AcordesyTabs.com © 2008 Acordes y Tablaturas para guitarra. Tabs and Chords for guitar. Aviso Legal - Contacto
El uso de este sitio está sujeto a la aceptación de los términos y condiciones (7 usuarios online)