tablaturas, partituras y acordes para guitarra
Busca por banda/artista:
 
y/o título de la canción:
A B C D E F G H I J K L M N O P Q R S T U V W X Y Z 0 1 2 3 4 5 6 7 8 9 / Top 100 tabs
Categorías
Usuarios
usuario:
Darse de alta
password:
Artistas más visitados
Publicidad
TOP acordes y tablaturas de Pedro Infante


Estás en: Inicio > Letra P > Acordes y tablaturas de Pedro Infante > Historia de un amor
Historia de un amor
de Pedro Infante
Puntúa este acorde/tab:      
(0.3/5)
Reportar este acorde/tab
  Añadir a tus favoritos
  Imprimir
HOLA!!!!!

De nuevo soy yo jorge ojala sea de su agrado

La intrtoduccion es la siguiente:

1
e--0--0--12--12--12--10---13--------10----------------
B------------------------------12--13-----------------
C-----------------------------------------------------

2
e--0--0--10--10--10-------12--------------------------
B---------------------13------13--10--12--13----------
C-----------------------------------------------------

3                                                               
e--0--0--8-8-8/7--10--7--------7--7--7--5--8--5------*-5-5-5--4--7-
B------------------------8--10------------------6--8-*-------------
C----------------------------------------------------*-------------

        Dm                  E7               
Ya no estas mas ami lado corazon,
                  Am
en el alma solo tengo soledad,
                  G
y si ya no puedo verte,
                        F  
por que dios me hizo quererte,
                     E7----
para hacerme sufrir mas.

          Dm
Siempre fuiste la razon de mi existir,
              Am
adorarte para mi fue religion,
   G
y en tus besos yo encontraba,
    F              E7
el calor que me brindaba,
    Am---- 
el amor y la pasion.

Coro:

                       Dm
Es la historia de un amor,
                   E7
como no hay otra igual,
                 Am
que me hizo comprender todo
         
el bien todo el mal,
                     F 
que le dio luz a mi vida,
    G          C
apagandola despues,
                      Dm
ay! que noche tan obscura,
                  E7---
sin tu amor no vivire...


Ya no estoy.......


INTRO


Es la historia..........


Ya no estoy mas.........



Si tienen dudas, correcciones, o solo platicar
escribanme.
		   
AcordesyTabs.com © 2008 Acordes y Tablaturas para guitarra. Tabs and Chords for guitar. Aviso Legal - Contacto
El uso de este sitio está sujeto a la aceptación de los términos y condiciones (29 usuarios online)