tablaturas, partituras y acordes para guitarra
Busca por banda/artista:
 
y/o título de la canción:
A B C D E F G H I J K L M N O P Q R S T U V W X Y Z 0 1 2 3 4 5 6 7 8 9 / Top 100 tabs
Categorías
Usuarios
usuario:
Darse de alta
password:
Artistas más visitados
Publicidad
TOP acordes y tablaturas de Luis Miguel


Estás en: Inicio > Letra L > Acordes y tablaturas de Luis Miguel > Historia de un Amor
Historia de un Amor
de Luis Miguel
Puntúa este acorde/tab:      
(0.8/5)
Reportar este acorde/tab
  Añadir a tus favoritos
  Imprimir
  *Este intro esta muy facil, si conoces la melodia
1
e--0--0--12--12--12--10---13----------10---------------------
B-----------------------------12--13-------------------------
C------------------------------------------------------------

2
e--0--0--10--10--10-------12---------------------------------
B---------------------13------13--10--12--13-----------------
C------------------------------------------------------------
 
3                                                       (Primer Final)              
e--0--0--8-8-8/7--10--7---------7--7--7--5--8--5-------*-5-5-5--4--7-
B------------------------8--10--------------------6--8-*-------------
C------------------------------------------------------*-------------

e--0-1-0--------0-----
B---------3-1-3-------
C---------------------


**Repite 1,y 2, el la 3 solo cambia el Final  


(Segundo Final)

e--5-4----------------
B-------8-7-5---------
C---------------------


Esta es la segunda parte de la Cancion.
(solo dale ritmo y se escucha Bien.)

e---------------------10-10--8-7-7-5-4-----------
B--13-12-10-12-13-10--12-12-10-9-9-6-5-----------
C------------------------------------------------


e---------------------12-12--10---------------
B--15-13-12-13-15-12--13-13-----------------
C---------------------------------------
		   
AcordesyTabs.com © 2008 Acordes y Tablaturas para guitarra. Tabs and Chords for guitar. Aviso Legal - Contacto
El uso de este sitio está sujeto a la aceptación de los términos y condiciones (26 usuarios online)