tablaturas, partituras y acordes para guitarra
Busca por banda/artista:
 
y/o título de la canción:
A B C D E F G H I J K L M N O P Q R S T U V W X Y Z 0 1 2 3 4 5 6 7 8 9 / Top 100 tabs
Categorías
Usuarios
usuario:
Darse de alta
password:
Artistas más visitados
Publicidad
TOP acordes y tablaturas de Almafuerte


Homenaje
de Almafuerte
Puntúa este acorde/tab:      
(0.5/5)
Reportar este acorde/tab
  Añadir a tus favoritos
  Imprimir
RIFF Intro

e|-----------------------------------|----------------------------------------
b|-----------------------------------|----------------------------------------
g|---------------0-------------------|----------------0-----------------------
d|-----------2-----2------------2/4--|------------2-----2------------2/4------
a|-0-2h3h5-0---0-----0---0h2h3--3/5--|--0-2h3h5-0---0-----0---0h2h3-----------
E|-----------------------------------|----------------------------------------

en la base el bajo se mantiene en LA y la guitarra hace:

e|---------------------|--------------------
b|---------------------|--------------------
g|---------------------|--------------------
d|--5-4-3-2---4-5--7-8-|-5-4-3-2---4-5--8-7-
a|--3-2-1-0---2-3--5-6-|-3-2-1-0---2-3--6-5-
E|---------------------|--------------------

                                     Do Re <===Bajo
e|---------------------|--------------------
b|---------------------|--------------------
g|---------------------|--------------------
d|--5-4-3-2---4-5--7-8-|-5-4-3-2---4-5--7---
a|--3-2-1-0---2-3--5-6-|-3-2-1-0---2-3--5---
E|---------------------|--------------------
es un poco complicado agarrale el ritmo, pero sale

el estribillo es así:

       Fa5          Mi5     La5           Sol5
	Mucha riqueza adquirí al conocerte    
       Do5             La5  Re5
	graves decires de aguda intuición
       Fa5          Mi5       La5               Sol5
	como no cantarle a la honra de un jinete
       Do5          La5 Re5         
	exponente vivo   de la tradición.

antes del solo y al final hay un puente que es:

 Fa5 Sol5 Mi5 - Fa5 Sol5 Mi5 La5
---------------------------------------------------------------------------

El tano Marciello es un capo! es el mejor violero del mundo!
		   
AcordesyTabs.com © 2008 Acordes y Tablaturas para guitarra. Tabs and Chords for guitar. Aviso Legal - Contacto
El uso de este sitio está sujeto a la aceptación de los términos y condiciones (18 usuarios online)