tablaturas, partituras y acordes para guitarra
Busca por banda/artista:
 
y/o título de la canción:
A B C D E F G H I J K L M N O P Q R S T U V W X Y Z 0 1 2 3 4 5 6 7 8 9 / Top 100 tabs
Categorías
Usuarios
usuario:
Darse de alta
password:
Artistas más visitados
Publicidad
TOP acordes y tablaturas de Morbo


Hoy/tab
de Morbo
Puntúa este acorde/tab:      
(0.5/5)
Reportar este acorde/tab
  Añadir a tus favoritos
  Imprimir
Pues nadamas es la correccion del tab que habia mandado, solo que 
el requinto del intro lo habia buesto en la, y va en do#, asi que 
aqui esta, echenle ganas.

Intro:
1ra guitarra: Muy rápido (Delay)
e--4-4-4-4-4-4-4-4-4-4-4-4-4-4-4-4-4-4-4------------------------
B--5-5-5-5-5-5-5-5-5-5-5-5-5-5-5-5-5-5-5------------------------
G--6-6-6-6-6-6-6-6-6-6-6-6-6-6-6-6-6-6-6------------------------
D---------------------------------------------------------------
A---------------------------------------------------------------
E---------------------------------------------------------------

2da guitarra: (Distorsión y wha wha)
e---------------------------------------------------------------
B--/14--16-14--12----12-----------------------------------------
G-----------------14----14-13--11-13----------------------------
D---------------------------------------------------------------
A---------------------------------------------------------------
E---------------------------------------------------------------

e---------------------------------------------------------------
B--/14-16--14-12----12------------------------------------------
G----------------14----14-13--11-9-9h11-------------------------
D---------------------------------------------------------------
A---------------------------------------------------------------
E---------------------------------------------------------------


Verso:
         C#m          E     
Segui recorriendo los caminos 
             B      
que siempre quise descubrir
    C#m      E          B
envitando cruzar donde me conocian

        C#m            E          B      
Sacrificando todas las cosas que nunca permiti
      C#m    E           B     
confiando llegar a donde sucumbia

2da guitarra: (Distorsión)
e---------------------------------------------------------------
B---------------------------------------------------------------
G---------------------------------------------------------------
D--6-6-6-6-6-6-6-6-6-6-6-6-6-6-6-6-6-6-6-6-6-6-6-6-6------------
A--4-4-4-4-4-4-4-4-4-4-4-4-4-4-4-4-4-4-4-4-4-4-4-4-4------------
E---------------------------------------------------------------
 En verdad yo solo fui corriendo un poco sin sentido



Coro:

1ra guitarra: El riff va mas o menos así (flanger)
e------------------------------------
B------------------------------------
G-------------------------9-11-9-----
D--11--11--11-11-9----9--9--------9--
A-----------------12-----------------
E------------------------------------

2da guitarra (Distorsión):

Hoy he querido regresar el tiempo para respirar
e------------}-----------}-----------}--------------------------
B------------}-----------}-----------}--------------------------
G---6-6-6-6--}-----------}--9-9-9-9--}--------------------------
D---6-6-6-6--}--7-7-7-7--}--9-9-9-9--}--9-9-9-9-----------------
A---4-4-4-4--}--7-7-7-7--}--7-7-7-7--}--9-9-9-9-----------------
E------------}--5-5-5-5--}-----------}--7-7-7-7-----------------
      C#m         A            E           B       

Se repiten estas quintas

        C#m          A           E          B
Sacarme todo lo que pesa y lo que no me servira
Solo un momento para estar, solo volver a comenzar
A darem cuenta de las cosas que me engañan que me dan
Y que no he pedido



Guitarra 2: Intro de nuevo (Distorsión y wha wha)

2da guitarra: (Distorsión y wha wha)
e---------------------------------------------------------------
B--/14--16-14--12----12-----------------------------------------
G-----------------14----14-13--11-13----------------------------
D---------------------------------------------------------------
A---------------------------------------------------------------
E---------------------------------------------------------------

e---------------------------------------------------------------
B--/14-16--14-12----12------------------------------------------
G----------------14----14-13--11-9-9h11-------------------------
D---------------------------------------------------------------
A---------------------------------------------------------------
E---------------------------------------------------------------

Guitarra 1: Muy rápido como en el intro (Delay)

e--4-4-4-4-4-4-4-4-4-4-4-}--7-7-7-7-7-7-7-7-}--7-7-7-7-7-7-7-7-7--
B--5-5-5-5-5-5-5-5-5-5-5-}--9-9-9-9-9-9-9-9-}--7-7-7-7-7-7-7-7-7--
G--6-6-6-6-6-6-6-6-6-6-6-}--9-9-9-9-9-9-9-9-}--8-8-8-8-8-8-8-8-8--
D------------------------}------------------}---------------------
A------------------------}------------------}---------------------
E------------------------}------------------}---------------------
          C#m                     E                   B

          C#m        E
Sigo protegido por la surte 
            B       
Que tambien hago funcionar
               E         B         
y aburrido cuando  vi solo distinguido

Guitarra 2: (Distorsión)
e---------------------------------------------------------------
B---------------------------------------------------------------
G---------------------------------------------------------------
D--6-6-6-6-6-6-6-6-6-6-6-6-6-6-6-6-6-6-6-6-6-6-6-6-6------------
A--4-4-4-4-4-4-4-4-4-4-4-4-4-4-4-4-4-4-4-4-4-4-4-4-4------------
E---------------------------------------------------------------
No me rindo si el momento esta un poco deshabrido

Coro:

Guitarra 1: (Flanger)
e------------------------------------
B------------------------------------
G-------------------------9-11-9-----
D--11--11--11-11-9----9--9--------9--
A-----------------12-----------------
E------------------------------------

Guitarra 2: (Distorsión)
Hoy he querido regresar el tiempo para respirar
e------------}-----------}-----------}--------------------------
B------------}-----------}-----------}--------------------------
G---6-6-6-6--}-----------}--9-9-9-9--}--------------------------
D---6-6-6-6--}--7-7-7-7--}--9-9-9-9--}--9-9-9-9-----------------
A---4-4-4-4--}--7-7-7-7--}--7-7-7-7--}--9-9-9-9-----------------
E------------}--5-5-5-5--}-----------}--7-7-7-7-----------------
      C#m         A            E           B       

Se repiten estas quintas

        C#m          A           E          B
Sacarme todo lo que pesa y lo que no me servira
Solo un momento para estar, solo volver a comenzar
A darem cuenta de las cosas que me engañan que me dan
Y que no he pedido

   C#m      A             E  B
se que no simpre tengo la razón 
pero me olvidava hacia donde voy
ya no siento algun temor 
porque nunca olvido hacia donde voy

        C#m          A           E          B
Hoy he querido regresar, el tiempo para respirar
Sacarme todo lo que pesa y lo que no me servira
Solo un momento para estar, solo volver a comenzar
A darem cuenta de las cosas que me engañan que me dan
Y que no he pedido


Guitarra 2: Toca un riff muy parecido al del coro.
Guitarra 1: (Delay)

e--4-4-4-4-4-4--}-5-5-5-5-5-5--}-7-7-7-7-7-7--}-7-7-7-7-7-7-7-
B--5-5-5-5-5-5--}-5-5-5-5-5-5--}-9-9-9-9-9-9--}-7-7-7-7-7-7-7-
G--6-6-6-6-6-6--}-6-6-6-6-6-6--}-9-9-9-9-9-9--}-8-8-8-8-8-8-8-
D---------------}--------------}--------------}---------------
A---------------}--------------}--------------}---------------
E---------------}--------------}--------------}---------------
      C#m              A              E              B
		   
AcordesyTabs.com © 2008 Acordes y Tablaturas para guitarra. Tabs and Chords for guitar. Aviso Legal - Contacto
El uso de este sitio está sujeto a la aceptación de los términos y condiciones (102 usuarios online)